999
"DXF R12 Output" (www.mydxf.blogspot.com)
 0 
SECTION
 2 
HEADER
 9 
$ACADVER
 1 
AC1009
 9 
$EXTMIN
 10 
 0 
 20 
 0 
 9 
$EXTMAX
 10 
 8.5 
 20 
 11 
 0 
ENDSEC
 0 
SECTION
 2 
ENTITIES
0
LINE
8
X_Gridlines
10
521.776000
20
0.000000
11
522.433547
21
2.237995
0
LINE
8
X_Gridlines
10
522.433547
20
2.237995
11
523.032713
21
4.710113
0
LINE
8
X_Gridlines
10
523.032713
20
4.710113
11
523.614125
21
7.795088
0
LINE
8
X_Gridlines
10
523.614125
20
7.795088
11
524.029271
21
11.276001
0
LINE
8
X_Gridlines
10
524.029271
20
11.276001
11
524.129641
21
14.935936
0
LINE
8
X_Gridlines
10
524.129641
20
14.935936
11
523.766721
21
18.557975
0
LINE
8
X_Gridlines
10
523.766721
20
18.557975
11
523.365117
21
20.286996
0
LINE
8
X_Gridlines
10
523.365117
20
20.286996
11
522.792000
21
21.925200
0
LINE
8
X_Gridlines
10
522.792000
20
21.925200
11
521.634992
21
24.393097
0
LINE
8
X_Gridlines
10
521.634992
20
24.393097
11
520.723187
21
25.652277
0
LINE
8
X_Gridlines
10
520.723187
20
25.652277
11
520.311878
21
25.917935
0
LINE
8
X_Gridlines
10
520.311878
20
25.917935
11
519.905039
21
25.988621
0
LINE
8
X_Gridlines
10
519.905039
20
25.988621
11
519.029000
21
25.688012
0
LINE
8
X_Gridlines
10
519.029000
20
25.688012
11
517.943523
21
25.036334
0
LINE
8
X_Gridlines
10
517.943523
20
25.036334
11
516.497063
21
24.319467
0
LINE
8
X_Gridlines
10
516.497063
20
24.319467
11
514.538070
21
23.823295
0
LINE
8
X_Gridlines
10
514.538070
20
23.823295
11
513.319017
21
23.747308
0
LINE
8
X_Gridlines
10
513.319017
20
23.747308
11
511.915000
21
23.833700
0
LINE
8
X_Gridlines
10
511.915000
20
23.833700
11
510.518302
21
24.186197
0
LINE
8
X_Gridlines
10
510.518302
20
24.186197
11
509.329756
21
24.853762
0
LINE
8
X_Gridlines
10
509.329756
20
24.853762
11
508.343813
21
25.789936
0
LINE
8
X_Gridlines
10
508.343813
20
25.789936
11
507.554922
21
26.948256
0
LINE
8
X_Gridlines
10
507.554922
20
26.948256
11
506.957533
21
28.282262
0
LINE
8
X_Gridlines
10
506.957533
20
28.282262
11
506.546096
21
29.745491
0
LINE
8
X_Gridlines
10
506.546096
20
29.745491
11
506.315060
21
31.291482
0
LINE
8
X_Gridlines
10
506.315060
20
31.291482
11
506.258875
21
32.873775
0
LINE
8
X_Gridlines
10
506.258875
20
32.873775
11
506.371991
21
34.445908
0
LINE
8
X_Gridlines
10
506.371991
20
34.445908
11
506.648857
21
35.961419
0
LINE
8
X_Gridlines
10
506.648857
20
35.961419
11
507.083924
21
37.373847
0
LINE
8
X_Gridlines
10
507.083924
20
37.373847
11
507.671641
21
38.636731
0
LINE
8
X_Gridlines
10
507.671641
20
38.636731
11
508.406457
21
39.703610
0
LINE
8
X_Gridlines
10
508.406457
20
39.703610
11
509.282822
21
40.528022
0
LINE
8
X_Gridlines
10
509.282822
20
40.528022
11
510.295187
21
41.063506
0
LINE
8
X_Gridlines
10
510.295187
20
41.063506
11
511.438000
21
41.263600
0
LINE
8
X_Gridlines
10
511.438000
20
41.263600
11
512.586625
21
41.180104
0
LINE
8
X_Gridlines
10
512.586625
20
41.180104
11
513.627676
21
40.920428
0
LINE
8
X_Gridlines
10
513.627676
20
40.920428
11
515.432344
21
40.020358
0
LINE
8
X_Gridlines
10
515.432344
20
40.020358
11
516.942590
21
38.859037
0
LINE
8
X_Gridlines
10
516.942590
20
38.859037
11
518.249000
21
37.732112
0
LINE
8
X_Gridlines
10
518.249000
20
37.732112
11
519.442160
21
36.935230
0
LINE
8
X_Gridlines
10
519.442160
20
36.935230
11
520.024580
21
36.752944
0
LINE
8
X_Gridlines
10
520.024580
20
36.752944
11
520.612656
21
36.764036
0
LINE
8
X_Gridlines
10
520.612656
20
36.764036
11
521.217713
21
37.005462
0
LINE
8
X_Gridlines
10
521.217713
20
37.005462
11
521.851074
21
37.514177
0
LINE
8
X_Gridlines
10
521.851074
20
37.514177
11
522.524062
21
38.327138
0
LINE
8
X_Gridlines
10
522.524062
20
38.327138
11
523.248000
21
39.481300
0
LINE
8
X_Gridlines
10
523.248000
20
39.481300
11
523.945367
21
41.073631
0
LINE
8
X_Gridlines
10
523.945367
20
41.073631
11
524.533232
21
43.133481
0
LINE
8
X_Gridlines
10
524.533232
20
43.133481
11
525.014806
21
45.596376
0
LINE
8
X_Gridlines
10
525.014806
20
45.596376
11
525.393297
21
48.397842
0
LINE
8
X_Gridlines
10
525.393297
20
48.397842
11
525.853869
21
54.758598
0
LINE
8
X_Gridlines
10
525.853869
20
54.758598
11
525.940625
21
61.699963
0
LINE
8
X_Gridlines
10
525.940625
20
61.699963
11
525.679240
21
68.706151
0
LINE
8
X_Gridlines
10
525.679240
20
68.706151
11
525.095391
21
75.261377
0
LINE
8
X_Gridlines
10
525.095391
20
75.261377
11
524.214752
21
80.849855
0
LINE
8
X_Gridlines
10
524.214752
20
80.849855
11
523.671160
21
83.120381
0
LINE
8
X_Gridlines
10
523.671160
20
83.120381
11
523.063000
21
84.955800
0
LINE
8
X_Gridlines
10
523.063000
20
84.955800
11
521.959617
21
87.466111
0
LINE
8
X_Gridlines
10
521.959617
20
87.466111
11
521.104625
21
88.795859
0
LINE
8
X_Gridlines
10
521.104625
20
88.795859
11
520.722653
21
89.104419
0
LINE
8
X_Gridlines
10
520.722653
20
89.104419
11
520.345633
21
89.221515
0
LINE
8
X_Gridlines
10
520.345633
20
89.221515
11
519.530250
21
89.019550
0
LINE
8
X_Gridlines
10
519.530250
20
89.019550
11
518.506086
21
88.466435
0
LINE
8
X_Gridlines
10
518.506086
20
88.466435
11
517.120750
21
87.838641
0
LINE
8
X_Gridlines
10
517.120750
20
87.838641
11
515.221852
21
87.412639
0
LINE
8
X_Gridlines
10
515.221852
20
87.412639
11
514.032194
21
87.361707
0
LINE
8
X_Gridlines
10
514.032194
20
87.361707
11
512.657000
21
87.464900
0
LINE
8
X_Gridlines
10
512.657000
20
87.464900
11
511.304458
21
87.817540
0
LINE
8
X_Gridlines
10
511.304458
20
87.817540
11
510.189090
21
88.463583
0
LINE
8
X_Gridlines
10
510.189090
20
88.463583
11
509.301340
21
89.360537
0
LINE
8
X_Gridlines
10
509.301340
20
89.360537
11
508.631656
21
90.465909
0
LINE
8
X_Gridlines
10
508.631656
20
90.465909
11
508.170484
21
91.737209
0
LINE
8
X_Gridlines
10
508.170484
20
91.737209
11
507.908270
21
93.131943
0
LINE
8
X_Gridlines
10
507.908270
20
93.131943
11
507.835459
21
94.607621
0
LINE
8
X_Gridlines
10
507.835459
20
94.607621
11
507.942500
21
96.121750
0
LINE
8
X_Gridlines
10
507.942500
20
96.121750
11
508.219837
21
97.631838
0
LINE
8
X_Gridlines
10
508.219837
20
97.631838
11
508.657918
21
99.095394
0
LINE
8
X_Gridlines
10
508.657918
20
99.095394
11
509.247188
21
100.469926
0
LINE
8
X_Gridlines
10
509.247188
20
100.469926
11
509.978094
21
101.712941
0
LINE
8
X_Gridlines
10
509.978094
20
101.712941
11
510.841082
21
102.781948
0
LINE
8
X_Gridlines
10
510.841082
20
102.781948
11
511.826598
21
103.634454
0
LINE
8
X_Gridlines
10
511.826598
20
103.634454
11
512.925088
21
104.227969
0
LINE
8
X_Gridlines
10
512.925088
20
104.227969
11
514.127000
21
104.520000
0
LINE
8
X_Gridlines
10
514.127000
20
104.520000
11
515.292560
21
104.532290
0
LINE
8
X_Gridlines
10
515.292560
20
104.532290
11
516.300418
21
104.341100
0
LINE
8
X_Gridlines
10
516.300418
20
104.341100
11
517.168653
21
103.986273
0
LINE
8
X_Gridlines
10
517.168653
20
103.986273
11
517.915344
21
103.507655
0
LINE
8
X_Gridlines
10
517.915344
20
103.507655
11
519.116410
21
102.338423
0
LINE
8
X_Gridlines
10
519.116410
20
102.338423
11
520.048250
21
101.152162
0
LINE
8
X_Gridlines
10
520.048250
20
101.152162
11
520.855496
21
100.267632
0
LINE
8
X_Gridlines
10
520.855496
20
100.267632
11
521.257594
21
100.038127
0
LINE
8
X_Gridlines
10
521.257594
20
100.038127
11
521.682781
21
100.003589
0
LINE
8
X_Gridlines
10
521.682781
20
100.003589
11
522.149136
21
100.203863
0
LINE
8
X_Gridlines
10
522.149136
20
100.203863
11
522.674738
21
100.678792
0
LINE
8
X_Gridlines
10
522.674738
20
100.678792
11
523.976000
21
102.612000
0
LINE
8
X_Gridlines
10
523.976000
20
102.612000
11
524.547533
21
104.234191
0
LINE
8
X_Gridlines
10
524.547533
20
104.234191
11
524.788701
21
106.383469
0
LINE
8
X_Gridlines
10
524.788701
20
106.383469
11
524.746109
21
108.986637
0
LINE
8
X_Gridlines
10
524.746109
20
108.986637
11
524.466359
21
111.970500
0
LINE
8
X_Gridlines
10
524.466359
20
111.970500
11
523.381807
21
118.787531
0
LINE
8
X_Gridlines
10
523.381807
20
118.787531
11
521.907875
21
126.249000
0
LINE
8
X_Gridlines
10
521.907875
20
126.249000
11
520.417396
21
133.769344
0
LINE
8
X_Gridlines
10
520.417396
20
133.769344
11
519.283203
21
140.763000
0
LINE
8
X_Gridlines
10
519.283203
20
140.763000
11
518.966223
21
143.879332
0
LINE
8
X_Gridlines
10
518.966223
20
143.879332
11
518.878127
21
146.644406
0
LINE
8
X_Gridlines
10
518.878127
20
146.644406
11
519.065518
21
148.985027
0
LINE
8
X_Gridlines
10
519.065518
20
148.985027
11
519.575000
21
150.828000
0
LINE
8
X_Gridlines
10
519.575000
20
150.828000
11
520.817670
21
153.171514
0
LINE
8
X_Gridlines
10
520.817670
20
153.171514
11
521.366538
21
153.808611
0
LINE
8
X_Gridlines
10
521.366538
20
153.808611
11
521.889234
21
154.144672
0
LINE
8
X_Gridlines
10
521.889234
20
154.144672
11
522.402362
21
154.221251
0
LINE
8
X_Gridlines
10
522.402362
20
154.221251
11
522.922525
21
154.079900
0
LINE
8
X_Gridlines
10
522.922525
20
154.079900
11
524.050375
21
153.309625
0
LINE
8
X_Gridlines
10
524.050375
20
153.309625
11
525.405615
21
152.166271
0
LINE
8
X_Gridlines
10
525.405615
20
152.166271
11
527.121078
21
150.982266
0
LINE
8
X_Gridlines
10
527.121078
20
150.982266
11
528.155403
21
150.478901
0
LINE
8
X_Gridlines
10
528.155403
20
150.478901
11
529.329596
21
150.090033
0
LINE
8
X_Gridlines
10
529.329596
20
150.090033
11
530.660260
21
149.857215
0
LINE
8
X_Gridlines
10
530.660260
20
149.857215
11
532.164000
21
149.822000
0
LINE
8
X_Gridlines
10
532.164000
20
149.822000
11
533.647408
21
150.081971
0
LINE
8
X_Gridlines
10
533.647408
20
150.081971
11
534.909340
21
150.675939
0
LINE
8
X_Gridlines
10
534.909340
20
150.675939
11
535.954797
21
151.557302
0
LINE
8
X_Gridlines
10
535.954797
20
151.557302
11
536.788781
21
152.679453
0
LINE
8
X_Gridlines
10
536.788781
20
152.679453
11
537.416292
21
153.995790
0
LINE
8
X_Gridlines
10
537.416292
20
153.995790
11
537.842332
21
155.459709
0
LINE
8
X_Gridlines
10
537.842332
20
155.459709
11
538.071901
21
157.024605
0
LINE
8
X_Gridlines
10
538.071901
20
157.024605
11
538.110000
21
158.643875
0
LINE
8
X_Gridlines
10
538.110000
20
158.643875
11
537.961630
21
160.270914
0
LINE
8
X_Gridlines
10
537.961630
20
160.270914
11
537.631793
21
161.859119
0
LINE
8
X_Gridlines
10
537.631793
20
161.859119
11
537.125489
21
163.361885
0
LINE
8
X_Gridlines
10
537.125489
20
163.361885
11
536.447719
21
164.732609
0
LINE
8
X_Gridlines
10
536.447719
20
164.732609
11
535.603484
21
165.924687
0
LINE
8
X_Gridlines
10
535.603484
20
165.924687
11
534.597785
21
166.891514
0
LINE
8
X_Gridlines
10
534.597785
20
166.891514
11
533.435624
21
167.586486
0
LINE
8
X_Gridlines
10
533.435624
20
167.586486
11
532.122000
21
167.963000
0
LINE
8
X_Gridlines
10
532.122000
20
167.963000
11
530.780141
21
168.056561
0
LINE
8
X_Gridlines
10
530.780141
20
168.056561
11
529.526037
21
167.958016
0
LINE
8
X_Gridlines
10
529.526037
20
167.958016
11
527.259922
21
167.330250
0
LINE
8
X_Gridlines
10
527.259922
20
167.330250
11
525.281314
21
166.370984
0
LINE
8
X_Gridlines
10
525.281314
20
166.370984
11
523.547875
21
165.371500
0
LINE
8
X_Gridlines
10
523.547875
20
165.371500
11
522.017264
21
164.623078
0
LINE
8
X_Gridlines
10
522.017264
20
164.623078
11
521.314787
21
164.434041
0
LINE
8
X_Gridlines
10
521.314787
20
164.434041
11
520.647141
21
164.417000
0
LINE
8
X_Gridlines
10
520.647141
20
164.417000
11
520.009031
21
164.608365
0
LINE
8
X_Gridlines
10
520.009031
20
164.608365
11
519.395166
21
165.044547
0
LINE
8
X_Gridlines
10
519.395166
20
165.044547
11
518.800253
21
165.761955
0
LINE
8
X_Gridlines
10
518.800253
20
165.761955
11
518.219000
21
166.797000
0
LINE
8
X_Gridlines
10
518.219000
20
166.797000
11
517.680765
21
168.267192
0
LINE
8
X_Gridlines
10
517.680765
20
168.267192
11
517.219215
21
170.221631
0
LINE
8
X_Gridlines
10
517.219215
20
170.221631
11
516.528594
21
175.318422
0
LINE
8
X_Gridlines
10
516.528594
20
175.318422
11
516.151988
21
181.557721
0
LINE
8
X_Gridlines
10
516.151988
20
181.557721
11
516.094250
21
188.409875
0
LINE
8
X_Gridlines
10
516.094250
20
188.409875
11
516.360230
21
195.345232
0
LINE
8
X_Gridlines
10
516.360230
20
195.345232
11
516.954781
21
201.834141
0
LINE
8
X_Gridlines
10
516.954781
20
201.834141
11
517.882754
21
207.346947
0
LINE
8
X_Gridlines
10
517.882754
20
207.346947
11
518.473290
21
209.571796
0
LINE
8
X_Gridlines
10
518.473290
20
209.571796
11
519.149000
21
211.354000
0
LINE
8
X_Gridlines
10
519.149000
20
211.354000
11
520.361486
21
213.700117
0
LINE
8
X_Gridlines
10
520.361486
20
213.700117
11
521.243891
21
214.786375
0
LINE
8
X_Gridlines
10
521.243891
20
214.786375
11
521.617419
21
214.951935
0
LINE
8
X_Gridlines
10
521.617419
20
214.951935
11
521.975756
21
214.916383
0
LINE
8
X_Gridlines
10
521.975756
20
214.916383
11
522.736625
21
214.393750
0
LINE
8
X_Gridlines
10
522.736625
20
214.393750
11
523.706041
21
213.522086
0
LINE
8
X_Gridlines
10
523.706041
20
213.522086
11
525.063547
21
212.605000
0
LINE
8
X_Gridlines
10
525.063547
20
212.605000
11
525.943941
21
212.224302
0
LINE
8
X_Gridlines
10
525.943941
20
212.224302
11
526.988686
21
211.946102
0
LINE
8
X_Gridlines
10
526.988686
20
211.946102
11
528.220224
21
211.808351
0
LINE
8
X_Gridlines
10
528.220224
20
211.808351
11
529.661000
21
211.849000
0
LINE
8
X_Gridlines
10
529.661000
20
211.849000
11
531.092996
21
212.183560
0
LINE
8
X_Gridlines
10
531.092996
20
212.183560
11
532.289607
21
212.868445
0
LINE
8
X_Gridlines
10
532.289607
20
212.868445
11
533.259833
21
213.852405
0
LINE
8
X_Gridlines
10
533.259833
20
213.852405
11
534.012672
21
215.084187
0
LINE
8
X_Gridlines
10
534.012672
20
215.084187
11
534.557122
21
216.512540
0
LINE
8
X_Gridlines
10
534.557122
20
216.512540
11
534.902182
21
218.086211
0
LINE
8
X_Gridlines
10
534.902182
20
218.086211
11
535.056850
21
219.753948
0
LINE
8
X_Gridlines
10
535.056850
20
219.753948
11
535.030125
21
221.464500
0
LINE
8
X_Gridlines
10
535.030125
20
221.464500
11
534.831006
21
223.166614
0
LINE
8
X_Gridlines
10
534.831006
20
223.166614
11
534.468490
21
224.809039
0
LINE
8
X_Gridlines
10
534.468490
20
224.809039
11
533.951577
21
226.340522
0
LINE
8
X_Gridlines
10
533.951577
20
226.340522
11
533.289266
21
227.709812
0
LINE
8
X_Gridlines
10
533.289266
20
227.709812
11
532.490553
21
228.865657
0
LINE
8
X_Gridlines
10
532.490553
20
228.865657
11
531.564439
21
229.756805
0
LINE
8
X_Gridlines
10
531.564439
20
229.756805
11
530.519922
21
230.332003
0
LINE
8
X_Gridlines
10
530.519922
20
230.332003
11
529.366000
21
230.540000
0
LINE
8
X_Gridlines
10
529.366000
20
230.540000
11
527.170424
21
230.280863
0
LINE
8
X_Gridlines
10
527.170424
20
230.280863
11
525.354828
21
229.628469
0
LINE
8
X_Gridlines
10
525.354828
20
229.628469
11
522.555375
21
228.069500
0
LINE
8
X_Gridlines
10
522.555375
20
228.069500
11
521.417416
21
227.625723
0
LINE
8
X_Gridlines
10
521.417416
20
227.625723
11
520.880169
21
227.588998
0
LINE
8
X_Gridlines
10
520.880169
20
227.588998
11
520.351234
21
227.714281
0
LINE
8
X_Gridlines
10
520.351234
20
227.714281
11
519.820982
21
228.030499
0
LINE
8
X_Gridlines
10
519.820982
20
228.030499
11
519.279779
21
228.566574
0
LINE
8
X_Gridlines
10
519.279779
20
228.566574
11
518.126000
21
230.414000
0
LINE
8
X_Gridlines
10
518.126000
20
230.414000
11
517.709102
21
231.889573
0
LINE
8
X_Gridlines
10
517.709102
20
231.889573
11
517.644895
21
233.850041
0
LINE
8
X_Gridlines
10
517.644895
20
233.850041
11
517.882169
21
236.229211
0
LINE
8
X_Gridlines
10
517.882169
20
236.229211
11
518.369719
21
238.960891
0
LINE
8
X_Gridlines
10
518.369719
20
238.960891
11
519.890809
21
245.217014
0
LINE
8
X_Gridlines
10
519.890809
20
245.217014
11
521.798500
21
252.088875
0
LINE
8
X_Gridlines
10
521.798500
20
252.088875
11
523.683129
21
259.046939
0
LINE
8
X_Gridlines
10
523.683129
20
259.046939
11
525.135031
21
265.561672
0
LINE
8
X_Gridlines
10
525.135031
20
265.561672
11
525.570690
21
268.487309
0
LINE
8
X_Gridlines
10
525.570690
20
268.487309
11
525.744543
21
271.103537
0
LINE
8
X_Gridlines
10
525.744543
20
271.103537
11
525.605382
21
273.344165
0
LINE
8
X_Gridlines
10
525.605382
20
273.344165
11
525.102000
21
275.143000
0
LINE
8
X_Gridlines
10
525.102000
20
275.143000
11
523.799555
21
277.590391
0
LINE
8
X_Gridlines
10
523.799555
20
277.590391
11
523.203483
21
278.365246
0
LINE
8
X_Gridlines
10
523.203483
20
278.365246
11
522.624750
21
278.884562
0
LINE
8
X_Gridlines
10
522.624750
20
278.884562
11
522.048782
21
279.181105
0
LINE
8
X_Gridlines
10
522.048782
20
279.181105
11
521.461008
21
279.287641
0
LINE
8
X_Gridlines
10
521.461008
20
279.287641
11
520.191750
21
279.061750
0
LINE
8
X_Gridlines
10
520.191750
20
279.061750
11
516.870375
21
277.771562
0
LINE
8
X_Gridlines
10
516.870375
20
277.771562
11
514.585102
21
277.231516
0
LINE
8
X_Gridlines
10
514.585102
20
277.231516
11
513.235315
21
277.102434
0
LINE
8
X_Gridlines
10
513.235315
20
277.102434
11
511.728000
21
277.111000
0
LINE
8
X_Gridlines
10
511.728000
20
277.111000
11
510.281710
21
277.367218
0
LINE
8
X_Gridlines
10
510.281710
20
277.367218
11
509.114418
21
277.929289
0
LINE
8
X_Gridlines
10
509.114418
20
277.929289
11
508.211237
21
278.752841
0
LINE
8
X_Gridlines
10
508.211237
20
278.752841
11
507.557281
21
279.793500
0
LINE
8
X_Gridlines
10
507.557281
20
279.793500
11
507.137666
21
281.006894
0
LINE
8
X_Gridlines
10
507.137666
20
281.006894
11
506.937504
21
282.348648
0
LINE
8
X_Gridlines
10
506.937504
20
282.348648
11
506.941911
21
283.774392
0
LINE
8
X_Gridlines
10
506.941911
20
283.774392
11
507.136000
21
285.239750
0
LINE
8
X_Gridlines
10
507.136000
20
285.239750
11
507.504886
21
286.700351
0
LINE
8
X_Gridlines
10
507.504886
20
286.700351
11
508.033684
21
288.111820
0
LINE
8
X_Gridlines
10
508.033684
20
288.111820
11
508.707506
21
289.429786
0
LINE
8
X_Gridlines
10
508.707506
20
289.429786
11
509.511469
21
290.609875
0
LINE
8
X_Gridlines
10
509.511469
20
290.609875
11
510.430685
21
291.607714
0
LINE
8
X_Gridlines
10
510.430685
20
291.607714
11
511.450270
21
292.378930
0
LINE
8
X_Gridlines
10
511.450270
20
292.378930
11
512.555336
21
292.879149
0
LINE
8
X_Gridlines
10
512.555336
20
292.879149
11
513.731000
21
293.064000
0
LINE
8
X_Gridlines
10
513.731000
20
293.064000
11
515.813367
21
292.885590
0
LINE
8
X_Gridlines
10
515.813367
20
292.885590
11
517.333562
21
292.430969
0
LINE
8
X_Gridlines
10
517.333562
20
292.430969
11
519.270000
21
291.478250
0
LINE
8
X_Gridlines
10
519.270000
20
291.478250
11
519.977523
21
291.372730
0
LINE
8
X_Gridlines
10
519.977523
20
291.372730
11
520.705438
21
291.776156
0
LINE
8
X_Gridlines
10
520.705438
20
291.776156
11
521.599383
21
292.884816
0
LINE
8
X_Gridlines
10
521.599383
20
292.884816
11
522.805000
21
294.895000
0
LINE
8
X_Gridlines
10
522.805000
20
294.895000
11
523.412908
21
296.251227
0
LINE
8
X_Gridlines
10
523.412908
20
296.251227
11
523.840029
21
297.770486
0
LINE
8
X_Gridlines
10
523.840029
20
297.770486
11
524.105898
21
299.418210
0
LINE
8
X_Gridlines
10
524.105898
20
299.418210
11
524.230047
21
301.159828
0
LINE
8
X_Gridlines
10
524.230047
20
301.159828
11
524.131322
21
304.786475
0
LINE
8
X_Gridlines
10
524.131322
20
304.786475
11
523.700125
21
308.373875
0
LINE
8
X_Gridlines
10
523.700125
20
308.373875
11
523.092725
21
311.645479
0
LINE
8
X_Gridlines
10
523.092725
20
311.645479
11
522.465391
21
314.324734
0
LINE
8
X_Gridlines
10
522.465391
20
314.324734
11
521.776000
21
316.800000
0
LINE
8
X_Gridlines
10
566.576000
20
0.000000
11
565.634750
21
2.485792
0
LINE
8
X_Gridlines
10
565.634750
20
2.485792
11
564.733461
21
5.214981
0
LINE
8
X_Gridlines
10
564.733461
20
5.214981
11
563.789750
21
8.598988
0
LINE
8
X_Gridlines
10
563.789750
20
8.598988
11
562.987133
21
12.385776
0
LINE
8
X_Gridlines
10
562.987133
20
12.385776
11
562.509125
21
16.323314
0
LINE
8
X_Gridlines
10
562.509125
20
16.323314
11
562.449198
21
18.269853
0
LINE
8
X_Gridlines
10
562.449198
20
18.269853
11
562.539242
21
20.159567
0
LINE
8
X_Gridlines
10
562.539242
20
20.159567
11
562.802196
21
21.960950
0
LINE
8
X_Gridlines
10
562.802196
20
21.960950
11
563.261000
21
23.642500
0
LINE
8
X_Gridlines
10
563.261000
20
23.642500
11
563.813701
21
25.029884
0
LINE
8
X_Gridlines
10
563.813701
20
25.029884
11
564.350969
21
26.000516
0
LINE
8
X_Gridlines
10
564.350969
20
26.000516
11
564.884111
21
26.600455
0
LINE
8
X_Gridlines
10
564.884111
20
26.600455
11
565.424438
21
26.875763
0
LINE
8
X_Gridlines
10
565.424438
20
26.875763
11
565.983256
21
26.872496
0
LINE
8
X_Gridlines
10
565.983256
20
26.872496
11
566.571875
21
26.636716
0
LINE
8
X_Gridlines
10
566.571875
20
26.636716
11
567.883750
21
25.651850
0
LINE
8
X_Gridlines
10
567.883750
20
25.651850
11
569.450531
21
24.289641
0
LINE
8
X_Gridlines
10
569.450531
20
24.289641
11
571.362687
21
22.918563
0
LINE
8
X_Gridlines
10
571.362687
20
22.918563
11
572.476553
21
22.344846
0
LINE
8
X_Gridlines
10
572.476553
20
22.344846
11
573.710687
21
21.907091
0
LINE
8
X_Gridlines
10
573.710687
20
21.907091
11
575.076400
21
21.651355
0
LINE
8
X_Gridlines
10
575.076400
20
21.651355
11
576.585000
21
21.623700
0
LINE
8
X_Gridlines
10
576.585000
20
21.623700
11
578.042712
21
21.908652
0
LINE
8
X_Gridlines
10
578.042712
20
21.908652
11
579.254947
21
22.527973
0
LINE
8
X_Gridlines
10
579.254947
20
22.527973
11
580.231791
21
23.433513
0
LINE
8
X_Gridlines
10
580.231791
20
23.433513
11
580.983328
21
24.577125
0
LINE
8
X_Gridlines
10
580.983328
20
24.577125
11
581.519645
21
25.910660
0
LINE
8
X_Gridlines
10
581.519645
20
25.910660
11
581.850826
21
27.385971
0
LINE
8
X_Gridlines
10
581.850826
20
27.385971
11
581.986958
21
28.954909
0
LINE
8
X_Gridlines
10
581.986958
20
28.954909
11
581.938125
21
30.569325
0
LINE
8
X_Gridlines
10
581.938125
20
30.569325
11
581.714413
21
32.181072
0
LINE
8
X_Gridlines
10
581.714413
20
32.181072
11
581.325908
21
33.742001
0
LINE
8
X_Gridlines
10
581.325908
20
33.742001
11
580.782695
21
35.203964
0
LINE
8
X_Gridlines
10
580.782695
20
35.203964
11
580.094859
21
36.518812
0
LINE
8
X_Gridlines
10
580.094859
20
36.518812
11
579.272487
21
37.638399
0
LINE
8
X_Gridlines
10
579.272487
20
37.638399
11
578.325662
21
38.514574
0
LINE
8
X_Gridlines
10
578.325662
20
38.514574
11
577.264471
21
39.099191
0
LINE
8
X_Gridlines
10
577.264471
20
39.099191
11
576.099000
21
39.344100
0
LINE
8
X_Gridlines
10
576.099000
20
39.344100
11
574.942013
21
39.327139
0
LINE
8
X_Gridlines
10
574.942013
20
39.327139
11
573.893432
21
39.177653
0
LINE
8
X_Gridlines
10
573.893432
20
39.177653
11
572.082516
21
38.597786
0
LINE
8
X_Gridlines
10
572.082516
20
38.597786
11
569.332875
21
37.131237
0
LINE
8
X_Gridlines
10
569.332875
20
37.131237
11
568.238268
21
36.711279
0
LINE
8
X_Gridlines
10
568.238268
20
36.711279
11
567.726918
21
36.681724
0
LINE
8
X_Gridlines
10
567.726918
20
36.681724
11
567.226547
21
36.811345
0
LINE
8
X_Gridlines
10
567.226547
20
36.811345
11
566.727412
21
37.129314
0
LINE
8
X_Gridlines
10
566.727412
20
37.129314
11
566.219771
21
37.664799
0
LINE
8
X_Gridlines
10
566.219771
20
37.664799
11
565.140000
21
39.505000
0
LINE
8
X_Gridlines
10
565.140000
20
39.505000
11
564.705967
21
41.006553
0
LINE
8
X_Gridlines
10
564.705967
20
41.006553
11
564.522422
21
43.050535
0
LINE
8
X_Gridlines
10
564.522422
20
43.050535
11
564.553260
21
45.563034
0
LINE
8
X_Gridlines
10
564.553260
20
45.563034
11
564.762375
21
48.470136
0
LINE
8
X_Gridlines
10
564.762375
20
48.470136
11
565.571016
21
55.172497
0
LINE
8
X_Gridlines
10
565.571016
20
55.172497
11
566.659500
21
62.566313
0
LINE
8
X_Gridlines
10
566.659500
20
62.566313
11
567.738984
21
70.060276
0
LINE
8
X_Gridlines
10
567.738984
20
70.060276
11
568.520625
21
77.063083
0
LINE
8
X_Gridlines
10
568.520625
20
77.063083
11
568.709490
21
80.195519
0
LINE
8
X_Gridlines
10
568.709490
20
80.195519
11
568.715578
21
82.983426
0
LINE
8
X_Gridlines
10
568.715578
20
82.983426
11
568.502783
21
85.352891
0
LINE
8
X_Gridlines
10
568.502783
20
85.352891
11
568.035000
21
87.230000
0
LINE
8
X_Gridlines
10
568.035000
20
87.230000
11
567.061582
21
89.648687
0
LINE
8
X_Gridlines
10
567.061582
20
89.648687
11
566.438344
21
90.698206
0
LINE
8
X_Gridlines
10
566.438344
20
90.698206
11
566.195706
21
90.812013
0
LINE
8
X_Gridlines
10
566.195706
20
90.812013
11
565.965809
21
90.706510
0
LINE
8
X_Gridlines
10
565.965809
20
90.706510
11
565.444500
21
90.001550
0
LINE
8
X_Gridlines
10
565.444500
20
90.001550
11
564.674941
21
88.911277
0
LINE
8
X_Gridlines
10
564.674941
20
88.911277
11
563.457656
21
87.763644
0
LINE
8
X_Gridlines
10
563.457656
20
87.763644
11
562.618780
21
87.270801
0
LINE
8
X_Gridlines
10
562.618780
20
87.270801
11
561.593168
21
86.886601
0
LINE
8
X_Gridlines
10
561.593168
20
86.886601
11
560.355886
21
86.652036
0
LINE
8
X_Gridlines
10
560.355886
20
86.652036
11
558.882000
21
86.608100
0
LINE
8
X_Gridlines
10
558.882000
20
86.608100
11
557.396765
21
86.840469
0
LINE
8
X_Gridlines
10
557.396765
20
86.840469
11
556.137414
21
87.378954
0
LINE
8
X_Gridlines
10
556.137414
20
87.378954
11
555.097544
21
88.180755
0
LINE
8
X_Gridlines
10
555.097544
20
88.180755
11
554.270750
21
89.203073
0
LINE
8
X_Gridlines
10
554.270750
20
89.203073
11
553.650628
21
90.403108
0
LINE
8
X_Gridlines
10
553.650628
20
90.403108
11
553.230773
21
91.738060
0
LINE
8
X_Gridlines
10
553.230773
20
91.738060
11
553.004782
21
93.165128
0
LINE
8
X_Gridlines
10
553.004782
20
93.165128
11
552.966250
21
94.641513
0
LINE
8
X_Gridlines
10
552.966250
20
94.641513
11
553.108772
21
96.124414
0
LINE
8
X_Gridlines
10
553.108772
20
96.124414
11
553.425945
21
97.571033
0
LINE
8
X_Gridlines
10
553.425945
20
97.571033
11
553.911364
21
98.938568
0
LINE
8
X_Gridlines
10
553.911364
20
98.938568
11
554.558625
21
100.184220
0
LINE
8
X_Gridlines
10
554.558625
20
100.184220
11
555.361323
21
101.265190
0
LINE
8
X_Gridlines
10
555.361323
20
101.265190
11
556.313055
21
102.138676
0
LINE
8
X_Gridlines
10
556.313055
20
102.138676
11
557.407415
21
102.761879
0
LINE
8
X_Gridlines
10
557.407415
20
102.761879
11
558.638000
21
103.092000
0
LINE
8
X_Gridlines
10
558.638000
20
103.092000
11
560.907428
21
103.152465
0
LINE
8
X_Gridlines
10
560.907428
20
103.152465
11
562.622922
21
102.812542
0
LINE
8
X_Gridlines
10
562.622922
20
102.812542
11
564.952875
21
101.867112
0
LINE
8
X_Gridlines
10
564.952875
20
101.867112
11
565.847717
21
101.729397
0
LINE
8
X_Gridlines
10
565.847717
20
101.729397
11
566.749391
21
102.126877
0
LINE
8
X_Gridlines
10
566.749391
20
102.126877
11
567.798088
21
103.293446
0
LINE
8
X_Gridlines
10
567.798088
20
103.293446
11
569.134000
21
105.463000
0
LINE
8
X_Gridlines
10
569.134000
20
105.463000
11
569.700264
21
107.060753
0
LINE
8
X_Gridlines
10
569.700264
20
107.060753
11
569.906520
21
109.067227
0
LINE
8
X_Gridlines
10
569.906520
20
109.067227
11
569.803898
21
111.425368
0
LINE
8
X_Gridlines
10
569.803898
20
111.425368
11
569.443531
21
114.078125
0
LINE
8
X_Gridlines
10
569.443531
20
114.078125
11
568.154090
21
120.039273
0
LINE
8
X_Gridlines
10
568.154090
20
120.039273
11
566.447250
21
126.494250
0
LINE
8
X_Gridlines
10
566.447250
20
126.494250
11
564.732066
21
132.986633
0
LINE
8
X_Gridlines
10
564.732066
20
132.986633
11
563.417594
21
139.060000
0
LINE
8
X_Gridlines
10
563.417594
20
139.060000
11
563.038454
21
141.796921
0
LINE
8
X_Gridlines
10
563.038454
20
141.796921
11
562.912887
21
144.257930
0
LINE
8
X_Gridlines
10
562.912887
20
144.257930
11
563.092025
21
146.385974
0
LINE
8
X_Gridlines
10
563.092025
20
146.385974
11
563.627000
21
148.124000
0
LINE
8
X_Gridlines
10
563.627000
20
148.124000
11
564.855732
21
150.463979
0
LINE
8
X_Gridlines
10
564.855732
20
150.463979
11
565.746297
21
151.580016
0
LINE
8
X_Gridlines
10
565.746297
20
151.580016
11
566.122594
21
151.768752
0
LINE
8
X_Gridlines
10
566.122594
20
151.768752
11
566.483744
21
151.759139
0
LINE
8
X_Gridlines
10
566.483744
20
151.759139
11
567.253125
21
151.288375
0
LINE
8
X_Gridlines
10
567.253125
20
151.288375
11
568.239490
21
150.454752
0
LINE
8
X_Gridlines
10
568.239490
20
150.454752
11
569.627891
21
149.545297
0
LINE
8
X_Gridlines
10
569.627891
20
149.545297
11
570.530682
21
149.151828
0
LINE
8
X_Gridlines
10
570.530682
20
149.151828
11
571.603377
21
148.847037
0
LINE
8
X_Gridlines
10
571.603377
20
148.847037
11
572.869106
21
148.666802
0
LINE
8
X_Gridlines
10
572.869106
20
148.666802
11
574.351000
21
148.647000
0
LINE
8
X_Gridlines
10
574.351000
20
148.647000
11
575.860329
21
148.907692
0
LINE
8
X_Gridlines
10
575.860329
20
148.907692
11
577.192289
21
149.512756
0
LINE
8
X_Gridlines
10
577.192289
20
149.512756
11
578.346464
21
150.413797
0
LINE
8
X_Gridlines
10
578.346464
20
150.413797
11
579.322438
21
151.562422
0
LINE
8
X_Gridlines
10
579.322438
20
151.562422
11
580.119794
21
152.910236
0
LINE
8
X_Gridlines
10
580.119794
20
152.910236
11
580.738117
21
154.408846
0
LINE
8
X_Gridlines
10
580.738117
20
154.408846
11
581.176991
21
156.009857
0
LINE
8
X_Gridlines
10
581.176991
20
156.009857
11
581.436000
21
157.664875
0
LINE
8
X_Gridlines
10
581.436000
20
157.664875
11
581.514728
21
159.325507
0
LINE
8
X_Gridlines
10
581.514728
20
159.325507
11
581.412758
21
160.943357
0
LINE
8
X_Gridlines
10
581.412758
20
160.943357
11
581.129675
21
162.470033
0
LINE
8
X_Gridlines
10
581.129675
20
162.470033
11
580.665063
21
163.857141
0
LINE
8
X_Gridlines
10
580.665063
20
163.857141
11
580.018505
21
165.056285
0
LINE
8
X_Gridlines
10
580.018505
20
165.056285
11
579.189586
21
166.019072
0
LINE
8
X_Gridlines
10
579.189586
20
166.019072
11
578.177890
21
166.697109
0
LINE
8
X_Gridlines
10
578.177890
20
166.697109
11
576.983000
21
167.042000
0
LINE
8
X_Gridlines
10
576.983000
20
167.042000
11
575.740299
21
167.101800
0
LINE
8
X_Gridlines
10
575.740299
20
167.101800
11
574.581047
21
166.980682
0
LINE
8
X_Gridlines
10
574.581047
20
166.980682
11
572.484250
21
166.341078
0
LINE
8
X_Gridlines
10
572.484250
20
166.341078
11
570.635328
21
165.413967
0
LINE
8
X_Gridlines
10
570.635328
20
165.413967
11
568.977000
21
164.490125
0
LINE
8
X_Gridlines
10
568.977000
20
164.490125
11
567.451984
21
163.860330
0
LINE
8
X_Gridlines
10
567.451984
20
163.860330
11
566.721568
21
163.746568
0
LINE
8
X_Gridlines
10
566.721568
20
163.746568
11
566.003000
21
163.815359
0
LINE
8
X_Gridlines
10
566.003000
20
163.815359
11
565.289119
21
164.103051
0
LINE
8
X_Gridlines
10
565.289119
20
164.103051
11
564.572766
21
164.645990
0
LINE
8
X_Gridlines
10
564.572766
20
164.645990
11
563.846779
21
165.480524
0
LINE
8
X_Gridlines
10
563.846779
20
165.480524
11
563.104000
21
166.643000
0
LINE
8
X_Gridlines
10
563.104000
20
166.643000
11
562.415949
21
168.257898
0
LINE
8
X_Gridlines
10
562.415949
20
168.257898
11
561.855094
21
170.379232
0
LINE
8
X_Gridlines
10
561.855094
20
170.379232
11
561.415129
21
172.937087
0
LINE
8
X_Gridlines
10
561.415129
20
172.937087
11
561.089750
21
175.861547
0
LINE
8
X_Gridlines
10
561.089750
20
175.861547
11
560.757531
21
182.530619
0
LINE
8
X_Gridlines
10
560.757531
20
182.530619
11
560.808000
21
189.827125
0
LINE
8
X_Gridlines
10
560.808000
20
189.827125
11
561.190719
21
197.191740
0
LINE
8
X_Gridlines
10
561.190719
20
197.191740
11
561.855250
21
204.065141
0
LINE
8
X_Gridlines
10
561.855250
20
204.065141
11
562.751156
21
209.888002
0
LINE
8
X_Gridlines
10
562.751156
20
209.888002
11
563.270113
21
212.230692
0
LINE
8
X_Gridlines
10
563.270113
20
212.230692
11
563.828000
21
214.101000
0
LINE
8
X_Gridlines
10
563.828000
20
214.101000
11
564.865303
21
216.411172
0
LINE
8
X_Gridlines
10
564.865303
20
216.411172
11
565.322266
21
216.957691
0
LINE
8
X_Gridlines
10
565.322266
20
216.957691
11
565.758734
21
217.165188
0
LINE
8
X_Gridlines
10
565.758734
20
217.165188
11
566.190181
21
217.083676
0
LINE
8
X_Gridlines
10
566.190181
20
217.083676
11
566.632080
21
216.763172
0
LINE
8
X_Gridlines
10
566.632080
20
216.763172
11
567.609125
21
215.605250
0
LINE
8
X_Gridlines
10
567.609125
20
215.605250
11
568.813654
21
214.091547
0
LINE
8
X_Gridlines
10
568.813654
20
214.091547
11
570.369453
21
212.622187
0
LINE
8
X_Gridlines
10
570.369453
20
212.622187
11
571.317761
21
212.029176
0
LINE
8
X_Gridlines
10
571.317761
20
212.029176
11
572.400307
21
211.597297
0
LINE
8
X_Gridlines
10
572.400307
20
211.597297
11
573.632562
21
211.376566
0
LINE
8
X_Gridlines
10
573.632562
20
211.376566
11
575.030000
21
211.417000
0
LINE
8
X_Gridlines
10
575.030000
20
211.417000
11
576.424726
21
211.807593
0
LINE
8
X_Gridlines
10
576.424726
20
211.807593
11
577.639963
21
212.567885
0
LINE
8
X_Gridlines
10
577.639963
20
212.567885
11
578.677301
21
213.643707
0
LINE
8
X_Gridlines
10
578.677301
20
213.643707
11
579.538328
21
214.980891
0
LINE
8
X_Gridlines
10
579.538328
20
214.980891
11
580.224635
21
216.525268
0
LINE
8
X_Gridlines
10
580.224635
20
216.525268
11
580.737811
21
218.222670
0
LINE
8
X_Gridlines
10
580.737811
20
218.222670
11
581.079444
21
220.018928
0
LINE
8
X_Gridlines
10
581.079444
20
220.018928
11
581.251125
21
221.859875
0
LINE
8
X_Gridlines
10
581.251125
20
221.859875
11
581.254443
21
223.691341
0
LINE
8
X_Gridlines
10
581.254443
20
223.691341
11
581.090986
21
225.459158
0
LINE
8
X_Gridlines
10
581.090986
20
225.459158
11
580.762345
21
227.109158
0
LINE
8
X_Gridlines
10
580.762345
20
227.109158
11
580.270109
21
228.587172
0
LINE
8
X_Gridlines
10
580.270109
20
228.587172
11
579.615867
21
229.839031
0
LINE
8
X_Gridlines
10
579.615867
20
229.839031
11
578.801209
21
230.810568
0
LINE
8
X_Gridlines
10
578.801209
20
230.810568
11
577.827723
21
231.447614
0
LINE
8
X_Gridlines
10
577.827723
20
231.447614
11
576.697000
21
231.696000
0
LINE
8
X_Gridlines
10
576.697000
20
231.696000
11
575.530162
21
231.630615
0
LINE
8
X_Gridlines
10
575.530162
20
231.630615
11
574.443420
21
231.386105
0
LINE
8
X_Gridlines
10
574.443420
20
231.386105
11
572.487109
21
230.503844
0
LINE
8
X_Gridlines
10
572.487109
20
230.503844
11
570.781838
21
229.337473
0
LINE
8
X_Gridlines
10
570.781838
20
229.337473
11
569.281375
21
228.175250
0
LINE
8
X_Gridlines
10
569.281375
20
228.175250
11
567.939490
21
227.305434
0
LINE
8
X_Gridlines
10
567.939490
20
227.305434
11
567.313568
21
227.070258
0
LINE
8
X_Gridlines
10
567.313568
20
227.070258
11
566.709953
21
227.016281
0
LINE
8
X_Gridlines
10
566.709953
20
227.016281
11
566.122868
21
227.179535
0
LINE
8
X_Gridlines
10
566.122868
20
227.179535
11
565.546533
21
227.596051
0
LINE
8
X_Gridlines
10
565.546533
20
227.596051
11
564.975170
21
228.301862
0
LINE
8
X_Gridlines
10
564.975170
20
228.301862
11
564.403000
21
229.333000
0
LINE
8
X_Gridlines
10
564.403000
20
229.333000
11
563.852829
21
230.846833
0
LINE
8
X_Gridlines
10
563.852829
20
230.846833
11
563.354271
21
232.924695
0
LINE
8
X_Gridlines
10
563.354271
20
232.924695
11
562.529734
21
238.460438
0
LINE
8
X_Gridlines
10
562.529734
20
238.460438
11
561.964861
21
245.316086
0
LINE
8
X_Gridlines
10
561.964861
20
245.316086
11
561.695125
21
252.867500
0
LINE
8
X_Gridlines
10
561.695125
20
252.867500
11
561.755998
21
260.490539
0
LINE
8
X_Gridlines
10
561.755998
20
260.490539
11
562.182953
21
267.561062
0
LINE
8
X_Gridlines
10
562.182953
20
267.561062
11
562.544797
21
270.694087
0
LINE
8
X_Gridlines
10
562.544797
20
270.694087
11
563.011463
21
273.454930
0
LINE
8
X_Gridlines
10
563.011463
20
273.454930
11
563.587386
21
275.765573
0
LINE
8
X_Gridlines
10
563.587386
20
275.765573
11
564.277000
21
277.548000
0
LINE
8
X_Gridlines
10
564.277000
20
277.548000
11
565.494861
21
279.773277
0
LINE
8
X_Gridlines
10
565.494861
20
279.773277
11
566.296953
21
280.689969
0
LINE
8
X_Gridlines
10
566.296953
20
280.689969
11
566.607831
21
280.755732
0
LINE
8
X_Gridlines
10
566.607831
20
280.755732
11
566.893662
21
280.612113
0
LINE
8
X_Gridlines
10
566.893662
20
280.612113
11
567.495375
21
279.853750
0
LINE
8
X_Gridlines
10
567.495375
20
279.853750
11
568.312479
21
278.728918
0
LINE
8
X_Gridlines
10
568.312479
20
278.728918
11
569.555359
21
277.551656
0
LINE
8
X_Gridlines
10
569.555359
20
277.551656
11
570.402212
21
277.041501
0
LINE
8
X_Gridlines
10
570.402212
20
277.041501
11
571.434404
21
276.636004
0
LINE
8
X_Gridlines
10
571.434404
20
276.636004
11
572.678234
21
276.374418
0
LINE
8
X_Gridlines
10
572.678234
20
276.374418
11
574.160000
21
276.296000
0
LINE
8
X_Gridlines
10
574.160000
20
276.296000
11
575.677146
21
276.520811
0
LINE
8
X_Gridlines
10
575.677146
20
276.520811
11
577.010664
21
277.107953
0
LINE
8
X_Gridlines
10
577.010664
20
277.107953
11
578.161616
21
278.005807
0
LINE
8
X_Gridlines
10
578.161616
20
278.005807
11
579.131063
21
279.162750
0
LINE
8
X_Gridlines
10
579.131063
20
279.162750
11
579.920063
21
280.527162
0
LINE
8
X_Gridlines
10
579.920063
20
280.527162
11
580.529680
21
282.047422
0
LINE
8
X_Gridlines
10
580.529680
20
282.047422
11
580.960972
21
283.671908
0
LINE
8
X_Gridlines
10
580.960972
20
283.671908
11
581.215000
21
285.349000
0
LINE
8
X_Gridlines
10
581.215000
20
285.349000
11
581.292825
21
287.027076
0
LINE
8
X_Gridlines
10
581.292825
20
287.027076
11
581.195508
21
288.654516
0
LINE
8
X_Gridlines
10
581.195508
20
288.654516
11
580.924108
21
290.179697
0
LINE
8
X_Gridlines
10
580.924108
20
290.179697
11
580.479687
21
291.551000
0
LINE
8
X_Gridlines
10
580.479687
20
291.551000
11
579.863306
21
292.716803
0
LINE
8
X_Gridlines
10
579.863306
20
292.716803
11
579.076023
21
293.625484
0
LINE
8
X_Gridlines
10
579.076023
20
293.625484
11
578.118901
21
294.225424
0
LINE
8
X_Gridlines
10
578.118901
20
294.225424
11
576.993000
21
294.465000
0
LINE
8
X_Gridlines
10
576.993000
20
294.465000
11
574.683893
21
294.284660
0
LINE
8
X_Gridlines
10
574.683893
20
294.284660
11
572.582266
21
293.725219
0
LINE
8
X_Gridlines
10
572.582266
20
293.725219
11
568.917125
21
292.366500
0
LINE
8
X_Gridlines
10
568.917125
20
292.366500
11
567.311447
21
292.015957
0
LINE
8
X_Gridlines
10
567.311447
20
292.015957
11
566.556108
21
292.021050
0
LINE
8
X_Gridlines
10
566.556108
20
292.021050
11
565.828922
21
292.183781
0
LINE
8
X_Gridlines
10
565.828922
20
292.183781
11
565.127253
21
292.532196
0
LINE
8
X_Gridlines
10
565.127253
20
292.532196
11
564.448467
21
293.094340
0
LINE
8
X_Gridlines
10
564.448467
20
293.094340
11
563.789927
21
293.898259
0
LINE
8
X_Gridlines
10
563.789927
20
293.898259
11
563.149000
21
294.972000
0
LINE
8
X_Gridlines
10
563.149000
20
294.972000
11
562.631304
21
296.287482
0
LINE
8
X_Gridlines
10
562.631304
20
296.287482
11
562.327260
21
297.774697
0
LINE
8
X_Gridlines
10
562.327260
20
297.774697
11
562.211996
21
299.398240
0
LINE
8
X_Gridlines
10
562.211996
20
299.398240
11
562.260641
21
301.122703
0
LINE
8
X_Gridlines
10
562.260641
20
301.122703
11
562.750170
21
304.732764
0
LINE
8
X_Gridlines
10
562.750170
20
304.732764
11
563.596875
21
308.321625
0
LINE
8
X_Gridlines
10
563.596875
20
308.321625
11
564.601783
21
311.606033
0
LINE
8
X_Gridlines
10
564.601783
20
311.606033
11
565.565922
21
314.302734
0
LINE
8
X_Gridlines
10
565.565922
20
314.302734
11
566.576000
21
316.800000
0
LINE
8
X_Gridlines
10
611.376000
20
0.000000
11
612.417266
21
2.383856
0
LINE
8
X_Gridlines
10
612.417266
20
2.383856
11
613.414342
21
5.007509
0
LINE
8
X_Gridlines
10
613.414342
20
5.007509
11
614.458375
21
8.269050
0
LINE
8
X_Gridlines
10
614.458375
20
8.269050
11
615.346361
21
11.931035
0
LINE
8
X_Gridlines
10
615.346361
20
11.931035
11
615.875297
21
15.756019
0
LINE
8
X_Gridlines
10
615.875297
20
15.756019
11
615.941682
21
17.655433
0
LINE
8
X_Gridlines
10
615.941682
20
17.655433
11
615.842178
21
19.506555
0
LINE
8
X_Gridlines
10
615.842178
20
19.506555
11
615.551409
21
21.279705
0
LINE
8
X_Gridlines
10
615.551409
20
21.279705
11
615.044000
21
22.945200
0
LINE
8
X_Gridlines
10
615.044000
20
22.945200
11
614.431362
21
24.330187
0
LINE
8
X_Gridlines
10
614.431362
20
24.330187
11
613.834820
21
25.311418
0
LINE
8
X_Gridlines
10
613.834820
20
25.311418
11
613.243868
21
25.933621
0
LINE
8
X_Gridlines
10
613.243868
20
25.933621
11
612.648000
21
26.241528
0
LINE
8
X_Gridlines
10
612.648000
20
26.241528
11
612.036710
21
26.279867
0
LINE
8
X_Gridlines
10
612.036710
20
26.279867
11
611.399492
21
26.093368
0
LINE
8
X_Gridlines
10
611.399492
20
26.093368
11
610.005250
21
25.224775
0
LINE
8
X_Gridlines
10
610.005250
20
25.224775
11
608.381227
21
23.993585
0
LINE
8
X_Gridlines
10
608.381227
20
23.993585
11
606.443375
21
22.757634
0
LINE
8
X_Gridlines
10
606.443375
20
22.757634
11
605.330499
21
22.249698
0
LINE
8
X_Gridlines
10
605.330499
20
22.249698
11
604.107648
21
21.874761
0
LINE
8
X_Gridlines
10
604.107648
20
21.874761
11
602.764317
21
21.677551
0
LINE
8
X_Gridlines
10
602.764317
20
21.677551
11
601.290000
21
21.702800
0
LINE
8
X_Gridlines
10
601.290000
20
21.702800
11
599.849009
21
22.037083
0
LINE
8
X_Gridlines
10
599.849009
20
22.037083
11
598.610713
21
22.705644
0
LINE
8
X_Gridlines
10
598.610713
20
22.705644
11
597.572189
21
23.661162
0
LINE
8
X_Gridlines
10
597.572189
20
23.661162
11
596.730516
21
24.856311
0
LINE
8
X_Gridlines
10
596.730516
20
24.856311
11
596.082770
21
26.243769
0
LINE
8
X_Gridlines
10
596.082770
20
26.243769
11
595.626029
21
27.776213
0
LINE
8
X_Gridlines
10
595.626029
20
27.776213
11
595.357372
21
29.406318
0
LINE
8
X_Gridlines
10
595.357372
20
29.406318
11
595.273875
21
31.086763
0
LINE
8
X_Gridlines
10
595.273875
20
31.086763
11
595.372616
21
32.770222
0
LINE
8
X_Gridlines
10
595.372616
20
32.770222
11
595.650674
21
34.409373
0
LINE
8
X_Gridlines
10
595.650674
20
34.409373
11
596.105125
21
35.956893
0
LINE
8
X_Gridlines
10
596.105125
20
35.956893
11
596.733047
21
37.365458
0
LINE
8
X_Gridlines
10
596.733047
20
37.365458
11
597.531518
21
38.587744
0
LINE
8
X_Gridlines
10
597.531518
20
38.587744
11
598.497615
21
39.576429
0
LINE
8
X_Gridlines
10
598.497615
20
39.576429
11
599.628417
21
40.284189
0
LINE
8
X_Gridlines
10
599.628417
20
40.284189
11
600.921000
21
40.663700
0
LINE
8
X_Gridlines
10
600.921000
20
40.663700
11
602.241866
21
40.758790
0
LINE
8
X_Gridlines
10
602.241866
20
40.758790
11
603.465086
21
40.669215
0
LINE
8
X_Gridlines
10
603.465086
20
40.669215
11
605.652313
21
40.082339
0
LINE
8
X_Gridlines
10
605.652313
20
40.082339
11
607.550133
21
39.195615
0
LINE
8
X_Gridlines
10
607.550133
20
39.195615
11
609.226000
21
38.301587
0
LINE
8
X_Gridlines
10
609.226000
20
38.301587
11
610.747367
21
37.692799
0
LINE
8
X_Gridlines
10
610.747367
20
37.692799
11
611.471192
21
37.586789
0
LINE
8
X_Gridlines
10
611.471192
20
37.586789
11
612.181687
21
37.661792
0
LINE
8
X_Gridlines
10
612.181687
20
37.661792
11
612.887284
21
37.954377
0
LINE
8
X_Gridlines
10
612.887284
20
37.954377
11
613.596414
21
38.501112
0
LINE
8
X_Gridlines
10
613.596414
20
38.501112
11
614.317509
21
39.338563
0
LINE
8
X_Gridlines
10
614.317509
20
39.338563
11
615.059000
21
40.503300
0
LINE
8
X_Gridlines
10
615.059000
20
40.503300
11
615.760889
21
42.116497
0
LINE
8
X_Gridlines
10
615.760889
20
42.116497
11
616.358563
21
44.228410
0
LINE
8
X_Gridlines
10
616.358563
20
44.228410
11
616.853533
21
46.769225
0
LINE
8
X_Gridlines
10
616.853533
20
46.769225
11
617.247313
21
49.669130
0
LINE
8
X_Gridlines
10
617.247313
20
49.669130
11
617.737344
21
56.266956
0
LINE
8
X_Gridlines
10
617.737344
20
56.266956
11
617.840750
21
63.463387
0
LINE
8
X_Gridlines
10
617.840750
20
63.463387
11
617.569625
21
70.699920
0
LINE
8
X_Gridlines
10
617.569625
20
70.699920
11
616.936062
21
77.418052
0
LINE
8
X_Gridlines
10
616.936062
20
77.418052
11
615.952156
21
83.059279
0
LINE
8
X_Gridlines
10
615.952156
20
83.059279
11
615.332604
21
85.301522
0
LINE
8
X_Gridlines
10
615.332604
20
85.301522
11
614.630000
21
87.065100
0
LINE
8
X_Gridlines
10
614.630000
20
87.065100
11
613.297523
21
89.376977
0
LINE
8
X_Gridlines
10
613.297523
20
89.376977
11
612.720690
21
90.066801
0
LINE
8
X_Gridlines
10
612.720690
20
90.066801
11
612.179500
21
90.491606
0
LINE
8
X_Gridlines
10
612.179500
20
90.491606
11
611.655981
21
90.685685
0
LINE
8
X_Gridlines
10
611.655981
20
90.685685
11
611.132164
21
90.683332
0
LINE
8
X_Gridlines
10
611.132164
20
90.683332
11
610.011750
21
90.226500
0
LINE
8
X_Gridlines
10
610.011750
20
90.226500
11
608.674492
21
89.395455
0
LINE
8
X_Gridlines
10
608.674492
20
89.395455
11
606.976625
21
88.464544
0
LINE
8
X_Gridlines
10
606.976625
20
88.464544
11
604.774383
21
87.708110
0
LINE
8
X_Gridlines
10
604.774383
20
87.708110
11
603.439194
21
87.481056
0
LINE
8
X_Gridlines
10
603.439194
20
87.481056
11
601.924000
21
87.400500
0
LINE
8
X_Gridlines
10
601.924000
20
87.400500
11
600.448021
21
87.569777
0
LINE
8
X_Gridlines
10
600.448021
20
87.569777
11
599.234150
21
88.041305
0
LINE
8
X_Gridlines
10
599.234150
20
88.041305
11
598.270490
21
88.773000
0
LINE
8
X_Gridlines
10
598.270490
20
88.773000
11
597.545141
21
89.722781
0
LINE
8
X_Gridlines
10
597.545141
20
89.722781
11
597.046203
21
90.848566
0
LINE
8
X_Gridlines
10
597.046203
20
90.848566
11
596.761779
21
92.108273
0
LINE
8
X_Gridlines
10
596.761779
20
92.108273
11
596.679969
21
93.459820
0
LINE
8
X_Gridlines
10
596.679969
20
93.459820
11
596.788875
21
94.861125
0
LINE
8
X_Gridlines
10
596.788875
20
94.861125
11
597.076597
21
96.270105
0
LINE
8
X_Gridlines
10
597.076597
20
96.270105
11
597.531236
21
97.644680
0
LINE
8
X_Gridlines
10
597.531236
20
97.644680
11
598.140894
21
98.942766
0
LINE
8
X_Gridlines
10
598.140894
20
98.942766
11
598.893672
21
100.122281
0
LINE
8
X_Gridlines
10
598.893672
20
100.122281
11
599.777670
21
101.141145
0
LINE
8
X_Gridlines
10
599.777670
20
101.141145
11
600.780990
21
101.957273
0
LINE
8
X_Gridlines
10
600.780990
20
101.957273
11
601.891733
21
102.528586
0
LINE
8
X_Gridlines
10
601.891733
20
102.528586
11
603.098000
21
102.813000
0
LINE
8
X_Gridlines
10
603.098000
20
102.813000
11
604.268538
21
102.851869
0
LINE
8
X_Gridlines
10
604.268538
20
102.851869
11
605.290666
21
102.736265
0
LINE
8
X_Gridlines
10
605.290666
20
102.736265
11
606.953516
21
102.169364
0
LINE
8
X_Gridlines
10
606.953516
20
102.169364
11
608.214201
21
101.367753
0
LINE
8
X_Gridlines
10
608.214201
20
101.367753
11
609.200375
21
100.586887
0
LINE
8
X_Gridlines
10
609.200375
20
100.586887
11
610.039689
21
100.082224
0
LINE
8
X_Gridlines
10
610.039689
20
100.082224
11
610.444166
21
100.013297
0
LINE
8
X_Gridlines
10
610.444166
20
100.013297
11
610.859797
21
100.109217
0
LINE
8
X_Gridlines
10
610.859797
20
100.109217
11
611.788350
21
100.923324
0
LINE
8
X_Gridlines
10
611.788350
20
100.923324
11
612.953000
21
102.780000
0
LINE
8
X_Gridlines
10
612.953000
20
102.780000
11
613.571918
21
104.305928
0
LINE
8
X_Gridlines
10
613.571918
20
104.305928
11
614.103904
21
106.371473
0
LINE
8
X_Gridlines
10
614.103904
20
106.371473
11
614.909984
21
111.825969
0
LINE
8
X_Gridlines
10
614.909984
20
111.825969
11
615.377041
21
118.552605
0
LINE
8
X_Gridlines
10
615.377041
20
118.552605
11
615.510875
21
125.960500
0
LINE
8
X_Gridlines
10
615.510875
20
125.960500
11
615.317287
21
133.458770
0
LINE
8
X_Gridlines
10
615.317287
20
133.458770
11
614.802078
21
140.456531
0
LINE
8
X_Gridlines
10
614.802078
20
140.456531
11
613.971049
21
146.362902
0
LINE
8
X_Gridlines
10
613.971049
20
146.362902
11
613.438914
21
148.722166
0
LINE
8
X_Gridlines
10
613.438914
20
148.722166
11
612.830000
21
150.587000
0
LINE
8
X_Gridlines
10
612.830000
20
150.587000
11
611.722219
21
153.009439
0
LINE
8
X_Gridlines
10
611.722219
20
153.009439
11
610.876750
21
154.114891
0
LINE
8
X_Gridlines
10
610.876750
20
154.114891
11
610.500996
21
154.272597
0
LINE
8
X_Gridlines
10
610.500996
20
154.272597
11
610.129156
21
154.219678
0
LINE
8
X_Gridlines
10
610.129156
20
154.219678
11
609.315000
21
153.640125
0
LINE
8
X_Gridlines
10
609.315000
20
153.640125
11
608.269844
21
152.692557
0
LINE
8
X_Gridlines
10
608.269844
20
152.692557
11
606.829250
21
151.693297
0
LINE
8
X_Gridlines
10
606.829250
20
151.693297
11
605.909277
21
151.273134
0
LINE
8
X_Gridlines
10
605.909277
20
151.273134
11
604.828781
21
150.958670
0
LINE
8
X_Gridlines
10
604.828781
20
150.958670
11
603.567207
21
150.789445
0
LINE
8
X_Gridlines
10
603.567207
20
150.789445
11
602.104000
21
150.805000
0
LINE
8
X_Gridlines
10
602.104000
20
150.805000
11
600.664910
21
151.094891
0
LINE
8
X_Gridlines
10
600.664910
20
151.094891
11
599.482391
21
151.693219
0
LINE
8
X_Gridlines
10
599.482391
20
151.693219
11
598.545379
21
152.556344
0
LINE
8
X_Gridlines
10
598.545379
20
152.556344
11
597.842813
21
153.640625
0
LINE
8
X_Gridlines
10
597.842813
20
153.640625
11
597.363629
21
154.902422
0
LINE
8
X_Gridlines
10
597.363629
20
154.902422
11
597.096766
21
156.298094
0
LINE
8
X_Gridlines
10
597.096766
20
156.298094
11
597.031160
21
157.784000
0
LINE
8
X_Gridlines
10
597.031160
20
157.784000
11
597.155750
21
159.316500
0
LINE
8
X_Gridlines
10
597.155750
20
159.316500
11
597.459473
21
160.851953
0
LINE
8
X_Gridlines
10
597.459473
20
160.851953
11
597.931266
21
162.346719
0
LINE
8
X_Gridlines
10
597.931266
20
162.346719
11
598.560066
21
163.757156
0
LINE
8
X_Gridlines
10
598.560066
20
163.757156
11
599.334812
21
165.039625
0
LINE
8
X_Gridlines
10
599.334812
20
165.039625
11
600.244441
21
166.150484
0
LINE
8
X_Gridlines
10
600.244441
20
166.150484
11
601.277891
21
167.046094
0
LINE
8
X_Gridlines
10
601.277891
20
167.046094
11
602.424098
21
167.682813
0
LINE
8
X_Gridlines
10
602.424098
20
167.682813
11
603.672000
21
168.017000
0
LINE
8
X_Gridlines
10
603.672000
20
168.017000
11
604.893553
21
168.075243
0
LINE
8
X_Gridlines
10
604.893553
20
168.075243
11
605.977615
21
167.938820
0
LINE
8
X_Gridlines
10
605.977615
20
167.938820
11
606.939037
21
167.646128
0
LINE
8
X_Gridlines
10
606.939037
20
167.646128
11
607.792672
21
167.235562
0
LINE
8
X_Gridlines
10
607.792672
20
167.235562
11
609.235986
21
166.214398
0
LINE
8
X_Gridlines
10
609.235986
20
166.214398
11
610.426375
21
165.182500
0
LINE
8
X_Gridlines
10
610.426375
20
165.182500
11
611.482654
21
164.447039
0
LINE
8
X_Gridlines
10
611.482654
20
164.447039
11
611.997633
21
164.286464
0
LINE
8
X_Gridlines
10
611.997633
20
164.286464
11
612.523641
21
164.315188
0
LINE
8
X_Gridlines
10
612.523641
20
164.315188
11
613.075529
21
164.571606
0
LINE
8
X_Gridlines
10
613.075529
20
164.571606
11
613.668150
21
165.094117
0
LINE
8
X_Gridlines
10
613.668150
20
165.094117
11
615.035000
21
167.091000
0
LINE
8
X_Gridlines
10
615.035000
20
167.091000
11
615.611499
21
168.712122
0
LINE
8
X_Gridlines
10
615.611499
20
168.712122
11
615.854150
21
170.821848
0
LINE
8
X_Gridlines
10
615.854150
20
170.821848
11
615.809121
21
173.352658
0
LINE
8
X_Gridlines
10
615.809121
20
173.352658
11
615.522578
21
176.237031
0
LINE
8
X_Gridlines
10
615.522578
20
176.237031
11
614.409623
21
182.796387
0
LINE
8
X_Gridlines
10
614.409623
20
182.796387
11
612.884625
21
189.959750
0
LINE
8
X_Gridlines
10
612.884625
20
189.959750
11
611.316924
21
197.186957
0
LINE
8
X_Gridlines
10
611.316924
20
197.186957
11
610.075859
21
203.937844
0
LINE
8
X_Gridlines
10
610.075859
20
203.937844
11
609.693235
21
206.965866
0
LINE
8
X_Gridlines
10
609.693235
20
206.965866
11
609.530771
21
209.672246
0
LINE
8
X_Gridlines
10
609.530771
20
209.672246
11
609.634637
21
211.989464
0
LINE
8
X_Gridlines
10
609.634637
20
211.989464
11
610.051000
21
213.850000
0
LINE
8
X_Gridlines
10
610.051000
20
213.850000
11
611.027039
21
216.309898
0
LINE
8
X_Gridlines
10
611.027039
20
216.309898
11
611.721125
21
217.457812
0
LINE
8
X_Gridlines
10
611.721125
20
217.457812
11
612.018085
21
217.636440
0
LINE
8
X_Gridlines
10
612.018085
20
217.636440
11
612.311336
21
217.603070
0
LINE
8
X_Gridlines
10
612.311336
20
217.603070
11
612.975750
21
217.055000
0
LINE
8
X_Gridlines
10
612.975750
20
217.055000
11
613.892445
21
216.122930
0
LINE
8
X_Gridlines
10
613.892445
20
216.122930
11
615.239500
21
215.116188
0
LINE
8
X_Gridlines
10
615.239500
20
215.116188
11
616.130062
21
214.681479
0
LINE
8
X_Gridlines
10
616.130062
20
214.681479
11
617.194992
21
214.344102
0
LINE
8
X_Gridlines
10
617.194992
20
214.344102
11
618.456552
21
214.142720
0
LINE
8
X_Gridlines
10
618.456552
20
214.142720
11
619.937000
21
214.116000
0
LINE
8
X_Gridlines
10
619.937000
20
214.116000
11
621.409482
21
214.349243
0
LINE
8
X_Gridlines
10
621.409482
20
214.349243
11
622.638109
21
214.874807
0
LINE
8
X_Gridlines
10
622.638109
20
214.874807
11
623.631588
21
215.651939
0
LINE
8
X_Gridlines
10
623.631588
20
215.651939
11
624.398625
21
216.639891
0
LINE
8
X_Gridlines
10
624.398625
20
216.639891
11
624.947928
21
217.797910
0
LINE
8
X_Gridlines
10
624.947928
20
217.797910
11
625.288203
21
219.085248
0
LINE
8
X_Gridlines
10
625.288203
20
219.085248
11
625.428158
21
220.461153
0
LINE
8
X_Gridlines
10
625.428158
20
220.461153
11
625.376500
21
221.884875
0
LINE
8
X_Gridlines
10
625.376500
20
221.884875
11
625.141936
21
223.315663
0
LINE
8
X_Gridlines
10
625.141936
20
223.315663
11
624.733172
21
224.712768
0
LINE
8
X_Gridlines
10
624.733172
20
224.712768
11
624.158916
21
226.035437
0
LINE
8
X_Gridlines
10
624.158916
20
226.035437
11
623.427875
21
227.242922
0
LINE
8
X_Gridlines
10
623.427875
20
227.242922
11
622.548756
21
228.294471
0
LINE
8
X_Gridlines
10
622.548756
20
228.294471
11
621.530266
21
229.149334
0
LINE
8
X_Gridlines
10
621.530266
20
229.149334
11
620.381111
21
229.766760
0
LINE
8
X_Gridlines
10
620.381111
20
229.766760
11
619.110000
21
230.106000
0
LINE
8
X_Gridlines
10
619.110000
20
230.106000
11
617.875201
21
230.188365
0
LINE
8
X_Gridlines
10
617.875201
20
230.188365
11
616.815846
21
230.085934
0
LINE
8
X_Gridlines
10
616.815846
20
230.085934
11
615.912493
21
229.834668
0
LINE
8
X_Gridlines
10
615.912493
20
229.834668
11
615.145703
21
229.470531
0
LINE
8
X_Gridlines
10
615.145703
20
229.470531
11
613.944053
21
228.547488
0
LINE
8
X_Gridlines
10
613.944053
20
228.547488
11
613.055375
21
227.604500
0
LINE
8
X_Gridlines
10
613.055375
20
227.604500
11
612.324150
21
226.929262
0
LINE
8
X_Gridlines
10
612.324150
20
226.929262
11
611.968983
21
226.781954
0
LINE
8
X_Gridlines
10
611.968983
20
226.781954
11
611.594859
21
226.809469
0
LINE
8
X_Gridlines
10
611.594859
20
226.809469
11
611.182339
21
227.047769
0
LINE
8
X_Gridlines
10
611.182339
20
227.047769
11
610.711982
21
227.532816
0
LINE
8
X_Gridlines
10
610.711982
20
227.532816
11
609.520000
21
229.387000
0
LINE
8
X_Gridlines
10
609.520000
20
229.387000
11
608.972315
21
230.928987
0
LINE
8
X_Gridlines
10
608.972315
20
230.928987
11
608.701445
21
232.991910
0
LINE
8
X_Gridlines
10
608.701445
20
232.991910
11
608.668665
21
235.504464
0
LINE
8
X_Gridlines
10
608.668665
20
235.504464
11
608.835250
21
238.395344
0
LINE
8
X_Gridlines
10
608.835250
20
238.395344
11
609.611617
21
245.026855
0
LINE
8
X_Gridlines
10
609.611617
20
245.026855
11
610.720750
21
252.316000
0
LINE
8
X_Gridlines
10
610.720750
20
252.316000
11
611.852852
21
259.692332
0
LINE
8
X_Gridlines
10
611.852852
20
259.692332
11
612.698125
21
266.585406
0
LINE
8
X_Gridlines
10
612.698125
20
266.585406
11
612.916390
21
269.672458
0
LINE
8
X_Gridlines
10
612.916390
20
269.672458
11
612.946773
21
272.424777
0
LINE
8
X_Gridlines
10
612.946773
20
272.424777
11
612.750552
21
274.771060
0
LINE
8
X_Gridlines
10
612.750552
20
274.771060
11
612.289000
21
276.640000
0
LINE
8
X_Gridlines
10
612.289000
20
276.640000
11
611.218037
21
279.027961
0
LINE
8
X_Gridlines
10
611.218037
20
279.027961
11
610.762834
21
279.668843
0
LINE
8
X_Gridlines
10
610.762834
20
279.668843
11
610.337234
21
279.999125
0
LINE
8
X_Gridlines
10
610.337234
20
279.999125
11
609.923301
21
280.062407
0
LINE
8
X_Gridlines
10
609.923301
20
280.062407
11
609.503096
21
279.902289
0
LINE
8
X_Gridlines
10
609.503096
20
279.902289
11
608.572125
21
279.086250
0
LINE
8
X_Gridlines
10
608.572125
20
279.086250
11
607.400826
21
277.899805
0
LINE
8
X_Gridlines
10
607.400826
20
277.899805
11
605.845703
21
276.691750
0
LINE
8
X_Gridlines
10
605.845703
20
276.691750
11
604.879365
21
276.188618
0
LINE
8
X_Gridlines
10
604.879365
20
276.188618
11
603.763260
21
275.810883
0
LINE
8
X_Gridlines
10
603.763260
20
275.810883
11
602.479450
21
275.602144
0
LINE
8
X_Gridlines
10
602.479450
20
275.602144
11
601.010000
21
275.606000
0
LINE
8
X_Gridlines
10
601.010000
20
275.606000
11
599.566742
21
275.909460
0
LINE
8
X_Gridlines
10
599.566742
20
275.909460
11
598.366809
21
276.538793
0
LINE
8
X_Gridlines
10
598.366809
20
276.538793
11
597.400213
21
277.446487
0
LINE
8
X_Gridlines
10
597.400213
20
277.446487
11
596.656969
21
278.585031
0
LINE
8
X_Gridlines
10
596.656969
20
278.585031
11
596.127087
21
279.906916
0
LINE
8
X_Gridlines
10
596.127087
20
279.906916
11
595.800582
21
281.364629
0
LINE
8
X_Gridlines
10
595.800582
20
281.364629
11
595.667465
21
282.910661
0
LINE
8
X_Gridlines
10
595.667465
20
282.910661
11
595.717750
21
284.497500
0
LINE
8
X_Gridlines
10
595.717750
20
284.497500
11
595.941449
21
286.077636
0
LINE
8
X_Gridlines
10
595.941449
20
286.077636
11
596.328574
21
287.603559
0
LINE
8
X_Gridlines
10
596.328574
20
287.603559
11
596.869139
21
289.027756
0
LINE
8
X_Gridlines
10
596.869139
20
289.027756
11
597.553156
21
290.302719
0
LINE
8
X_Gridlines
10
597.553156
20
290.302719
11
598.370638
21
291.380935
0
LINE
8
X_Gridlines
10
598.370638
20
291.380935
11
599.311598
21
292.214895
0
LINE
8
X_Gridlines
10
599.311598
20
292.214895
11
600.366047
21
292.757086
0
LINE
8
X_Gridlines
10
600.366047
20
292.757086
11
601.524000
21
292.960000
0
LINE
8
X_Gridlines
10
601.524000
20
292.960000
11
603.762029
21
292.794205
0
LINE
8
X_Gridlines
10
603.762029
20
292.794205
11
605.694234
21
292.360203
0
LINE
8
X_Gridlines
10
605.694234
20
292.360203
11
608.898375
21
291.486375
0
LINE
8
X_Gridlines
10
608.898375
20
291.486375
11
610.298912
21
291.445947
0
LINE
8
X_Gridlines
10
610.298912
20
291.445947
11
610.976929
21
291.612223
0
LINE
8
X_Gridlines
10
610.976929
20
291.612223
11
611.650828
21
291.936109
0
LINE
8
X_Gridlines
10
611.650828
20
291.936109
11
612.328647
21
292.442568
0
LINE
8
X_Gridlines
10
612.328647
20
292.442568
11
613.018424
21
293.156561
0
LINE
8
X_Gridlines
10
613.018424
20
293.156561
11
614.466000
21
295.307000
0
LINE
8
X_Gridlines
10
614.466000
20
295.307000
11
615.094597
21
296.727155
0
LINE
8
X_Gridlines
10
615.094597
20
296.727155
11
615.488842
21
298.284221
0
LINE
8
X_Gridlines
10
615.488842
20
298.284221
11
615.675474
21
299.946665
0
LINE
8
X_Gridlines
10
615.675474
20
299.946665
11
615.681234
21
301.682953
0
LINE
8
X_Gridlines
10
615.681234
20
301.682953
11
615.257104
21
305.250928
0
LINE
8
X_Gridlines
10
615.257104
20
305.250928
11
614.430375
21
308.735875
0
LINE
8
X_Gridlines
10
614.430375
20
308.735875
11
613.414975
21
311.885525
0
LINE
8
X_Gridlines
10
613.414975
20
311.885525
11
612.424828
21
314.447609
0
LINE
8
X_Gridlines
10
612.424828
20
314.447609
11
611.376000
21
316.800000
0
LINE
8
X_Gridlines
10
656.176000
20
0.000000
11
655.453391
21
2.304386
0
LINE
8
X_Gridlines
10
655.453391
20
2.304386
11
654.796943
21
4.834049
0
LINE
8
X_Gridlines
10
654.796943
20
4.834049
11
654.163125
21
7.970188
0
LINE
8
X_Gridlines
10
654.163125
20
7.970188
11
653.716479
21
11.478921
0
LINE
8
X_Gridlines
10
653.716479
20
11.478921
11
653.621547
21
15.126370
0
LINE
8
X_Gridlines
10
653.621547
20
15.126370
11
653.757394
21
16.929026
0
LINE
8
X_Gridlines
10
653.757394
20
16.929026
11
654.042873
21
18.678656
0
LINE
8
X_Gridlines
10
654.042873
20
18.678656
11
654.498552
21
20.346026
0
LINE
8
X_Gridlines
10
654.498552
20
20.346026
11
655.145000
21
21.901900
0
LINE
8
X_Gridlines
10
655.145000
20
21.901900
11
656.424018
21
24.154625
0
LINE
8
X_Gridlines
10
656.424018
20
24.154625
11
656.932526
21
24.791683
0
LINE
8
X_Gridlines
10
656.932526
20
24.791683
11
657.383078
21
25.152934
0
LINE
8
X_Gridlines
10
657.383078
20
25.152934
11
657.797706
21
25.276177
0
LINE
8
X_Gridlines
10
657.797706
20
25.276177
11
658.198443
21
25.199208
0
LINE
8
X_Gridlines
10
658.198443
20
25.199208
11
659.046375
21
24.595825
0
LINE
8
X_Gridlines
10
659.046375
20
24.595825
11
660.103135
21
23.645164
0
LINE
8
X_Gridlines
10
660.103135
20
23.645164
11
661.544984
21
22.649603
0
LINE
8
X_Gridlines
10
661.544984
20
22.649603
11
662.465400
21
22.229479
0
LINE
8
X_Gridlines
10
662.465400
20
22.229479
11
663.548186
21
21.911522
0
LINE
8
X_Gridlines
10
663.548186
20
21.911522
11
664.815375
21
21.733530
0
LINE
8
X_Gridlines
10
664.815375
20
21.733530
11
666.289000
21
21.733300
0
LINE
8
X_Gridlines
10
666.289000
20
21.733300
11
667.750781
21
22.040511
0
LINE
8
X_Gridlines
10
667.750781
20
22.040511
11
668.973777
21
22.724190
0
LINE
8
X_Gridlines
10
668.973777
20
22.724190
11
669.966471
21
23.731099
0
LINE
8
X_Gridlines
10
669.966471
20
23.731099
11
670.737344
21
25.008002
0
LINE
8
X_Gridlines
10
670.737344
20
25.008002
11
671.294876
21
26.501659
0
LINE
8
X_Gridlines
10
671.294876
20
26.501659
11
671.647551
21
28.158834
0
LINE
8
X_Gridlines
10
671.647551
20
28.158834
11
671.803848
21
29.926290
0
LINE
8
X_Gridlines
10
671.803848
20
29.926290
11
671.772250
21
31.750788
0
LINE
8
X_Gridlines
10
671.772250
20
31.750788
11
671.561238
21
33.579091
0
LINE
8
X_Gridlines
10
671.561238
20
33.579091
11
671.179293
21
35.357961
0
LINE
8
X_Gridlines
10
671.179293
20
35.357961
11
670.634897
21
37.034162
0
LINE
8
X_Gridlines
10
670.634897
20
37.034162
11
669.936531
21
38.554455
0
LINE
8
X_Gridlines
10
669.936531
20
38.554455
11
669.092677
21
39.865603
0
LINE
8
X_Gridlines
10
669.092677
20
39.865603
11
668.111816
21
40.914368
0
LINE
8
X_Gridlines
10
668.111816
20
40.914368
11
667.002430
21
41.647513
0
LINE
8
X_Gridlines
10
667.002430
20
41.647513
11
665.773000
21
42.011800
0
LINE
8
X_Gridlines
10
665.773000
20
42.011800
11
664.570045
21
42.061016
0
LINE
8
X_Gridlines
10
664.570045
20
42.061016
11
663.522377
21
41.910686
0
LINE
8
X_Gridlines
10
663.522377
20
41.910686
11
662.612477
21
41.600177
0
LINE
8
X_Gridlines
10
662.612477
20
41.600177
11
661.822828
21
41.168858
0
LINE
8
X_Gridlines
10
661.822828
20
41.168858
11
660.534209
21
40.101260
0
LINE
8
X_Gridlines
10
660.534209
20
40.101260
11
659.516375
21
39.022837
0
LINE
8
X_Gridlines
10
659.516375
20
39.022837
11
658.629182
21
38.248535
0
LINE
8
X_Gridlines
10
658.629182
20
38.248535
11
658.190780
21
38.073850
0
LINE
8
X_Gridlines
10
658.190780
20
38.073850
11
657.732484
21
38.093298
0
LINE
8
X_Gridlines
10
657.732484
20
38.093298
11
657.236777
21
38.346250
0
LINE
8
X_Gridlines
10
657.236777
20
38.346250
11
656.686139
21
38.872072
0
LINE
8
X_Gridlines
10
656.686139
20
38.872072
11
655.350000
21
40.899800
0
LINE
8
X_Gridlines
10
655.350000
20
40.899800
11
654.761439
21
42.512285
0
LINE
8
X_Gridlines
10
654.761439
20
42.512285
11
654.493797
21
44.552922
0
LINE
8
X_Gridlines
10
654.493797
20
44.552922
11
654.501943
21
46.962269
0
LINE
8
X_Gridlines
10
654.501943
20
46.962269
11
654.740750
21
49.680883
0
LINE
8
X_Gridlines
10
654.740750
20
49.680883
11
655.729828
21
55.808137
0
LINE
8
X_Gridlines
10
655.729828
20
55.808137
11
657.100000
21
62.459137
0
LINE
8
X_Gridlines
10
657.100000
20
62.459137
11
658.490234
21
69.158340
0
LINE
8
X_Gridlines
10
658.490234
20
69.158340
11
659.539500
21
75.430198
0
LINE
8
X_Gridlines
10
659.539500
20
75.430198
11
659.823447
21
78.257266
0
LINE
8
X_Gridlines
10
659.823447
20
78.257266
11
659.886766
21
80.799167
0
LINE
8
X_Gridlines
10
659.886766
20
80.799167
11
659.684326
21
82.996460
0
LINE
8
X_Gridlines
10
659.684326
20
82.996460
11
659.171000
21
84.789700
0
LINE
8
X_Gridlines
10
659.171000
20
84.789700
11
658.012162
21
87.214891
0
LINE
8
X_Gridlines
10
658.012162
20
87.214891
11
657.155422
21
88.400094
0
LINE
8
X_Gridlines
10
657.155422
20
88.400094
11
656.785857
21
88.619212
0
LINE
8
X_Gridlines
10
656.785857
20
88.619212
11
656.426439
21
88.638149
0
LINE
8
X_Gridlines
10
656.426439
20
88.638149
11
655.650875
21
88.221900
0
LINE
8
X_Gridlines
10
655.650875
20
88.221900
11
654.654389
21
87.444188
0
LINE
8
X_Gridlines
10
654.654389
20
87.444188
11
653.262641
21
86.597856
0
LINE
8
X_Gridlines
10
653.262641
20
86.597856
11
652.364062
21
86.240471
0
LINE
8
X_Gridlines
10
652.364062
20
86.240471
11
651.301291
21
85.975746
0
LINE
8
X_Gridlines
10
651.301291
20
85.975746
11
650.052534
21
85.840287
0
LINE
8
X_Gridlines
10
650.052534
20
85.840287
11
648.596000
21
85.870700
0
LINE
8
X_Gridlines
10
648.596000
20
85.870700
11
647.140500
21
86.168167
0
LINE
8
X_Gridlines
10
647.140500
20
86.168167
11
645.905121
21
86.779797
0
LINE
8
X_Gridlines
10
645.905121
20
86.779797
11
644.884049
21
87.661135
0
LINE
8
X_Gridlines
10
644.884049
20
87.661135
11
644.071469
21
88.767730
0
LINE
8
X_Gridlines
10
644.071469
20
88.767730
11
643.461564
21
90.055128
0
LINE
8
X_Gridlines
10
643.461564
20
90.055128
11
643.048520
21
91.478876
0
LINE
8
X_Gridlines
10
643.048520
20
91.478876
11
642.826520
21
92.994522
0
LINE
8
X_Gridlines
10
642.826520
20
92.994522
11
642.789750
21
94.557613
0
LINE
8
X_Gridlines
10
642.789750
20
94.557613
11
642.932394
21
96.123695
0
LINE
8
X_Gridlines
10
642.932394
20
96.123695
11
643.248637
21
97.648316
0
LINE
8
X_Gridlines
10
643.248637
20
97.648316
11
643.732663
21
99.087024
0
LINE
8
X_Gridlines
10
643.732663
20
99.087024
11
644.378656
21
100.395364
0
LINE
8
X_Gridlines
10
644.378656
20
100.395364
11
645.180802
21
101.528885
0
LINE
8
X_Gridlines
10
645.180802
20
101.528885
11
646.133285
21
102.443133
0
LINE
8
X_Gridlines
10
646.133285
20
102.443133
11
647.230290
21
103.093656
0
LINE
8
X_Gridlines
10
647.230290
20
103.093656
11
648.466000
21
103.436000
0
LINE
8
X_Gridlines
10
648.466000
20
103.436000
11
649.668488
21
103.505369
0
LINE
8
X_Gridlines
10
649.668488
20
103.505369
11
650.684197
21
103.390983
0
LINE
8
X_Gridlines
10
650.684197
20
103.390983
11
651.534875
21
103.129417
0
LINE
8
X_Gridlines
10
651.534875
20
103.129417
11
652.242266
21
102.757245
0
LINE
8
X_Gridlines
10
652.242266
20
102.757245
11
653.314170
21
101.827382
0
LINE
8
X_Gridlines
10
653.314170
20
101.827382
11
654.073875
21
100.893988
0
LINE
8
X_Gridlines
10
654.073875
20
100.893988
11
654.695346
21
100.249657
0
LINE
8
X_Gridlines
10
654.695346
20
100.249657
11
655.008607
21
100.127327
0
LINE
8
X_Gridlines
10
655.008607
20
100.127327
11
655.352547
21
100.186986
0
LINE
8
X_Gridlines
10
655.352547
20
100.186986
11
656.219443
21
100.998569
0
LINE
8
X_Gridlines
10
656.219443
20
100.998569
11
657.470000
21
102.977000
0
LINE
8
X_Gridlines
10
657.470000
20
102.977000
11
658.042697
21
104.593159
0
LINE
8
X_Gridlines
10
658.042697
20
104.593159
11
658.291172
21
106.733723
0
LINE
8
X_Gridlines
10
658.291172
20
106.733723
11
658.261561
21
109.325511
0
LINE
8
X_Gridlines
10
658.261561
20
109.325511
11
658.000000
21
112.295344
0
LINE
8
X_Gridlines
10
658.000000
20
112.295344
11
656.965578
21
119.076418
0
LINE
8
X_Gridlines
10
656.965578
20
119.076418
11
655.557000
21
126.491500
0
LINE
8
X_Gridlines
10
655.557000
20
126.491500
11
654.143359
21
133.955145
0
LINE
8
X_Gridlines
10
654.143359
20
133.955145
11
653.093750
21
140.881906
0
LINE
8
X_Gridlines
10
653.093750
20
140.881906
11
652.820799
21
143.961004
0
LINE
8
X_Gridlines
10
652.820799
20
143.961004
11
652.777266
21
146.686340
0
LINE
8
X_Gridlines
10
652.777266
20
146.686340
11
653.009287
21
148.984732
0
LINE
8
X_Gridlines
10
653.009287
20
148.984732
11
653.563000
21
150.783000
0
LINE
8
X_Gridlines
10
653.563000
20
150.783000
11
654.868111
21
153.094348
0
LINE
8
X_Gridlines
10
654.868111
20
153.094348
11
655.431614
21
153.753998
0
LINE
8
X_Gridlines
10
655.431614
20
153.753998
11
655.959766
21
154.133156
0
LINE
8
X_Gridlines
10
655.959766
20
154.133156
11
656.470579
21
154.269467
0
LINE
8
X_Gridlines
10
656.470579
20
154.269467
11
656.982068
21
154.200574
0
LINE
8
X_Gridlines
10
656.982068
20
154.200574
11
658.079125
21
153.597750
0
LINE
8
X_Gridlines
10
658.079125
20
153.597750
11
659.395041
21
152.625832
0
LINE
8
X_Gridlines
10
659.395041
20
152.625832
11
661.073922
21
151.585969
0
LINE
8
X_Gridlines
10
661.073922
20
151.585969
11
662.094507
21
151.134667
0
LINE
8
X_Gridlines
10
662.094507
20
151.134667
11
663.259873
21
150.779309
0
LINE
8
X_Gridlines
10
663.259873
20
150.779309
11
664.588033
21
150.557539
0
LINE
8
X_Gridlines
10
664.588033
20
150.557539
11
666.097000
21
150.507000
0
LINE
8
X_Gridlines
10
666.097000
20
150.507000
11
667.591814
21
150.734652
0
LINE
8
X_Gridlines
10
667.591814
20
150.734652
11
668.868297
21
151.291854
0
LINE
8
X_Gridlines
10
668.868297
20
151.291854
11
669.931193
21
152.132851
0
LINE
8
X_Gridlines
10
669.931193
20
152.132851
11
670.785250
21
153.211891
0
LINE
8
X_Gridlines
10
670.785250
20
153.211891
11
671.435213
21
154.483217
0
LINE
8
X_Gridlines
10
671.435213
20
154.483217
11
671.885828
21
155.901076
0
LINE
8
X_Gridlines
10
671.885828
20
155.901076
11
672.141842
21
157.419714
0
LINE
8
X_Gridlines
10
672.141842
20
157.419714
11
672.208000
21
158.993375
0
LINE
8
X_Gridlines
10
672.208000
20
158.993375
11
672.089049
21
160.576306
0
LINE
8
X_Gridlines
10
672.089049
20
160.576306
11
671.789734
21
162.122752
0
LINE
8
X_Gridlines
10
671.789734
20
162.122752
11
671.314803
21
163.586959
0
LINE
8
X_Gridlines
10
671.314803
20
163.586959
11
670.669000
21
164.923172
0
LINE
8
X_Gridlines
10
670.669000
20
164.923172
11
669.857072
21
166.085637
0
LINE
8
X_Gridlines
10
669.857072
20
166.085637
11
668.883766
21
167.028600
0
LINE
8
X_Gridlines
10
668.883766
20
167.028600
11
667.753826
21
167.706305
0
LINE
8
X_Gridlines
10
667.753826
20
167.706305
11
666.472000
21
168.073000
0
LINE
8
X_Gridlines
10
666.472000
20
168.073000
11
665.190481
21
168.140578
0
LINE
8
X_Gridlines
10
665.190481
20
168.140578
11
664.048863
21
167.980344
0
LINE
8
X_Gridlines
10
664.048863
20
167.980344
11
663.032431
21
167.635656
0
LINE
8
X_Gridlines
10
663.032431
20
167.635656
11
662.126469
21
167.149875
0
LINE
8
X_Gridlines
10
662.126469
20
167.149875
11
660.587090
21
165.928469
0
LINE
8
X_Gridlines
10
660.587090
20
165.928469
11
659.313000
21
164.663000
0
LINE
8
X_Gridlines
10
659.313000
20
164.663000
11
658.186473
21
163.700344
0
LINE
8
X_Gridlines
10
658.186473
20
163.700344
11
657.641755
21
163.440969
0
LINE
8
X_Gridlines
10
657.641755
20
163.440969
11
657.089781
21
163.387375
0
LINE
8
X_Gridlines
10
657.089781
20
163.387375
11
656.515834
21
163.582922
0
LINE
8
X_Gridlines
10
656.515834
20
163.582922
11
655.905199
21
164.070969
0
LINE
8
X_Gridlines
10
655.905199
20
164.070969
11
655.243160
21
164.894875
0
LINE
8
X_Gridlines
10
655.243160
20
164.894875
11
654.515000
21
166.098000
0
LINE
8
X_Gridlines
10
654.515000
20
166.098000
11
653.931495
21
167.754244
0
LINE
8
X_Gridlines
10
653.931495
20
167.754244
11
653.681615
21
169.865842
0
LINE
8
X_Gridlines
10
653.681615
20
169.865842
11
653.717940
21
172.368656
0
LINE
8
X_Gridlines
10
653.717940
20
172.368656
11
653.993047
21
175.198547
0
LINE
8
X_Gridlines
10
653.993047
20
175.198547
11
655.069924
21
181.583010
0
LINE
8
X_Gridlines
10
655.069924
20
181.583010
11
656.532875
21
188.506125
0
LINE
8
X_Gridlines
10
656.532875
20
188.506125
11
658.002529
21
195.454787
0
LINE
8
X_Gridlines
10
658.002529
20
195.454787
11
659.099516
21
201.915891
0
LINE
8
X_Gridlines
10
659.099516
20
201.915891
11
659.389705
21
204.803262
0
LINE
8
X_Gridlines
10
659.389705
20
204.803262
11
659.444463
21
207.376330
0
LINE
8
X_Gridlines
10
659.444463
20
207.376330
11
659.216368
21
209.570955
0
LINE
8
X_Gridlines
10
659.216368
20
209.570955
11
658.658000
21
211.323000
0
LINE
8
X_Gridlines
10
658.658000
20
211.323000
11
657.349010
21
213.610281
0
LINE
8
X_Gridlines
10
657.349010
20
213.610281
11
656.793609
21
214.262502
0
LINE
8
X_Gridlines
10
656.793609
20
214.262502
11
656.279516
21
214.637938
0
LINE
8
X_Gridlines
10
656.279516
20
214.637938
11
655.788162
21
214.774709
0
LINE
8
X_Gridlines
10
655.788162
20
214.774709
11
655.300982
21
214.710938
0
LINE
8
X_Gridlines
10
655.300982
20
214.710938
11
654.264875
21
214.134250
0
LINE
8
X_Gridlines
10
654.264875
20
214.134250
11
653.022658
21
213.212844
0
LINE
8
X_Gridlines
10
653.022658
20
213.212844
11
651.425797
21
212.251688
0
LINE
8
X_Gridlines
10
651.425797
20
212.251688
11
650.447957
21
211.851506
0
LINE
8
X_Gridlines
10
650.447957
20
211.851506
11
649.325756
21
211.555750
0
LINE
8
X_Gridlines
10
649.325756
20
211.555750
11
648.040626
21
211.402541
0
LINE
8
X_Gridlines
10
648.040626
20
211.402541
11
646.574000
21
211.430000
0
LINE
8
X_Gridlines
10
646.574000
20
211.430000
11
645.150085
21
211.755972
0
LINE
8
X_Gridlines
10
645.150085
20
211.755972
11
643.996400
21
212.438775
0
LINE
8
X_Gridlines
10
643.996400
20
212.438775
11
643.099347
21
213.427242
0
LINE
8
X_Gridlines
10
643.099347
20
213.427242
11
642.445328
21
214.670203
0
LINE
8
X_Gridlines
10
642.445328
20
214.670203
11
642.020744
21
216.116490
0
LINE
8
X_Gridlines
10
642.020744
20
216.116490
11
641.811998
21
217.714936
0
LINE
8
X_Gridlines
10
641.811998
20
217.714936
11
641.805491
21
219.414370
0
LINE
8
X_Gridlines
10
641.805491
20
219.414370
11
641.987625
21
221.163625
0
LINE
8
X_Gridlines
10
641.987625
20
221.163625
11
642.344802
21
222.911532
0
LINE
8
X_Gridlines
10
642.344802
20
222.911532
11
642.863424
21
224.606924
0
LINE
8
X_Gridlines
10
642.863424
20
224.606924
11
643.529892
21
226.198631
0
LINE
8
X_Gridlines
10
643.529892
20
226.198631
11
644.330609
21
227.635484
0
LINE
8
X_Gridlines
10
644.330609
20
227.635484
11
645.251977
21
228.866317
0
LINE
8
X_Gridlines
10
645.251977
20
228.866317
11
646.280396
21
229.839959
0
LINE
8
X_Gridlines
10
646.280396
20
229.839959
11
647.402270
21
230.505243
0
LINE
8
X_Gridlines
10
647.402270
20
230.505243
11
648.604000
21
230.811000
0
LINE
8
X_Gridlines
10
648.604000
20
230.811000
11
649.745685
21
230.830624
0
LINE
8
X_Gridlines
10
649.745685
20
230.830624
11
650.709744
21
230.693676
0
LINE
8
X_Gridlines
10
650.709744
20
230.693676
11
652.186766
21
230.080156
0
LINE
8
X_Gridlines
10
652.186766
20
230.080156
11
653.198623
21
229.230621
0
LINE
8
X_Gridlines
10
653.198623
20
229.230621
11
653.908875
21
228.405250
0
LINE
8
X_Gridlines
10
653.908875
20
228.405250
11
654.481080
21
227.864223
0
LINE
8
X_Gridlines
10
654.481080
20
227.864223
11
654.766527
21
227.781644
0
LINE
8
X_Gridlines
10
654.766527
20
227.781644
11
655.078797
21
227.867719
0
LINE
8
X_Gridlines
10
655.078797
20
227.867719
11
655.865584
21
228.675918
0
LINE
8
X_Gridlines
10
655.865584
20
228.675918
11
657.005000
21
230.549000
0
LINE
8
X_Gridlines
10
657.005000
20
230.549000
11
657.668921
21
232.084814
0
LINE
8
X_Gridlines
10
657.668921
20
232.084814
11
658.286662
21
234.150934
0
LINE
8
X_Gridlines
10
658.286662
20
234.150934
11
659.358734
21
239.579656
0
LINE
8
X_Gridlines
10
659.358734
20
239.579656
11
660.171471
21
246.246301
0
LINE
8
X_Gridlines
10
660.171471
20
246.246301
11
660.675125
21
253.562000
0
LINE
8
X_Gridlines
10
660.675125
20
253.562000
11
660.819951
21
260.937887
0
LINE
8
X_Gridlines
10
660.819951
20
260.937887
11
660.556203
21
267.785094
0
LINE
8
X_Gridlines
10
660.556203
20
267.785094
11
660.255568
21
270.826421
0
LINE
8
X_Gridlines
10
660.255568
20
270.826421
11
659.834135
21
273.514754
0
LINE
8
X_Gridlines
10
659.834135
20
273.514754
11
659.285685
21
275.776483
0
LINE
8
X_Gridlines
10
659.285685
20
275.776483
11
658.604000
21
277.538000
0
LINE
8
X_Gridlines
10
658.604000
20
277.538000
11
657.353207
21
279.707217
0
LINE
8
X_Gridlines
10
657.353207
20
279.707217
11
656.880126
21
280.254007
0
LINE
8
X_Gridlines
10
656.880126
20
280.254007
11
656.477344
21
280.500547
0
LINE
8
X_Gridlines
10
656.477344
20
280.500547
11
656.121424
21
280.490557
0
LINE
8
X_Gridlines
10
656.121424
20
280.490557
11
655.788934
21
280.267760
0
LINE
8
X_Gridlines
10
655.788934
20
280.267760
11
655.100500
21
279.358625
0
LINE
8
X_Gridlines
10
655.100500
20
279.358625
11
654.224566
21
278.122912
0
LINE
8
X_Gridlines
10
654.224566
20
278.122912
11
652.973656
21
276.910391
0
LINE
8
X_Gridlines
10
652.973656
20
276.910391
11
652.148999
21
276.422130
0
LINE
8
X_Gridlines
10
652.148999
20
276.422130
11
651.160293
21
276.070830
0
LINE
8
X_Gridlines
10
651.160293
20
276.070830
11
649.984105
21
275.900213
0
LINE
8
X_Gridlines
10
649.984105
20
275.900213
11
648.597000
21
275.954000
0
LINE
8
X_Gridlines
10
648.597000
20
275.954000
11
647.173956
21
276.302112
0
LINE
8
X_Gridlines
10
647.173956
20
276.302112
11
645.907441
21
276.955580
0
LINE
8
X_Gridlines
10
645.907441
20
276.955580
11
644.799699
21
277.870356
0
LINE
8
X_Gridlines
10
644.799699
20
277.870356
11
643.852969
21
279.002391
0
LINE
8
X_Gridlines
10
643.852969
20
279.002391
11
643.069493
21
280.307634
0
LINE
8
X_Gridlines
10
643.069493
20
280.307634
11
642.451512
21
281.742037
0
LINE
8
X_Gridlines
10
642.451512
20
281.742037
11
642.001267
21
283.261551
0
LINE
8
X_Gridlines
10
642.001267
20
283.261551
11
641.721000
21
284.822125
0
LINE
8
X_Gridlines
10
641.721000
20
284.822125
11
641.612952
21
286.379711
0
LINE
8
X_Gridlines
10
641.612952
20
286.379711
11
641.679363
21
287.890260
0
LINE
8
X_Gridlines
10
641.679363
20
287.890260
11
641.922476
21
289.309721
0
LINE
8
X_Gridlines
10
641.922476
20
289.309721
11
642.344531
21
290.594047
0
LINE
8
X_Gridlines
10
642.344531
20
290.594047
11
642.947770
21
291.699187
0
LINE
8
X_Gridlines
10
642.947770
20
291.699187
11
643.734434
21
292.581092
0
LINE
8
X_Gridlines
10
643.734434
20
292.581092
11
644.706763
21
293.195713
0
LINE
8
X_Gridlines
10
644.706763
20
293.195713
11
645.867000
21
293.499000
0
LINE
8
X_Gridlines
10
645.867000
20
293.499000
11
648.131971
21
293.498186
0
LINE
8
X_Gridlines
10
648.131971
20
293.498186
11
649.970766
21
293.113172
0
LINE
8
X_Gridlines
10
649.970766
20
293.113172
11
652.756125
21
292.081125
0
LINE
8
X_Gridlines
10
652.756125
20
292.081125
11
653.895838
21
291.879381
0
LINE
8
X_Gridlines
10
653.895838
20
291.879381
11
654.444704
21
291.954486
0
LINE
8
X_Gridlines
10
654.444704
20
291.954486
11
654.995672
21
292.184016
0
LINE
8
X_Gridlines
10
654.995672
20
292.184016
11
656.152201
21
293.217674
0
LINE
8
X_Gridlines
10
656.152201
20
293.217674
11
657.462000
21
295.203000
0
LINE
8
X_Gridlines
10
657.462000
20
295.203000
11
658.070977
21
296.559558
0
LINE
8
X_Gridlines
10
658.070977
20
296.559558
11
658.492877
21
298.071855
0
LINE
8
X_Gridlines
10
658.492877
20
298.071855
11
658.748093
21
299.706327
0
LINE
8
X_Gridlines
10
658.748093
20
299.706327
11
658.857016
21
301.429406
0
LINE
8
X_Gridlines
10
658.857016
20
301.429406
11
658.717553
21
305.007129
0
LINE
8
X_Gridlines
10
658.717553
20
305.007129
11
658.237625
21
308.536500
0
LINE
8
X_Gridlines
10
658.237625
20
308.536500
11
657.580369
21
311.748996
0
LINE
8
X_Gridlines
10
657.580369
20
311.748996
11
656.908922
21
314.376094
0
LINE
8
X_Gridlines
10
656.908922
20
314.376094
11
656.176000
21
316.800000
0
LINE
8
Y_Gridlines
10
0.000000
20
253.365000
11
1.181371
21
254.165016
0
LINE
8
Y_Gridlines
10
1.181371
20
254.165016
11
2.557430
21
254.899834
0
LINE
8
Y_Gridlines
10
2.557430
20
254.899834
11
4.367599
21
255.622125
0
LINE
8
Y_Gridlines
10
4.367599
20
255.622125
11
6.544774
21
256.155088
0
LINE
8
Y_Gridlines
10
6.544774
20
256.155088
11
9.021852
21
256.321922
0
LINE
8
Y_Gridlines
10
9.021852
20
256.321922
11
10.351884
21
256.212790
0
LINE
8
Y_Gridlines
10
10.351884
20
256.212790
11
11.731728
21
255.945826
0
LINE
8
Y_Gridlines
10
11.731728
20
255.945826
11
13.152996
21
255.498929
0
LINE
8
Y_Gridlines
10
13.152996
20
255.498929
11
14.607300
21
254.850000
0
LINE
8
Y_Gridlines
10
14.607300
20
254.850000
11
16.820395
21
253.534064
0
LINE
8
Y_Gridlines
10
16.820395
20
253.534064
11
17.440192
21
252.993651
0
LINE
8
Y_Gridlines
10
17.440192
20
252.993651
11
17.784800
21
252.503891
0
LINE
8
Y_Gridlines
10
17.784800
20
252.503891
11
17.891204
21
252.043995
0
LINE
8
Y_Gridlines
10
17.891204
20
252.043995
11
17.796387
21
251.593178
0
LINE
8
Y_Gridlines
10
17.796387
20
251.593178
11
17.151025
21
250.635625
0
LINE
8
Y_Gridlines
10
17.151025
20
250.635625
11
16.144585
21
249.464932
0
LINE
8
Y_Gridlines
10
16.144585
20
249.464932
11
15.072938
21
247.914797
0
LINE
8
Y_Gridlines
10
15.072938
20
247.914797
11
14.605120
21
246.945470
0
LINE
8
Y_Gridlines
10
14.605120
20
246.945470
11
14.231952
21
245.818920
0
LINE
8
Y_Gridlines
10
14.231952
20
245.818920
11
13.990418
21
244.514359
0
LINE
8
Y_Gridlines
10
13.990418
20
244.514359
11
13.917500
21
243.011000
0
LINE
8
Y_Gridlines
10
13.917500
20
243.011000
11
14.137259
21
241.525118
0
LINE
8
Y_Gridlines
10
14.137259
20
241.525118
11
14.715280
21
240.280693
0
LINE
8
Y_Gridlines
10
14.715280
20
240.280693
11
15.600836
21
239.268496
0
LINE
8
Y_Gridlines
10
15.600836
20
239.268496
11
16.743202
21
238.479297
0
LINE
8
Y_Gridlines
10
16.743202
20
238.479297
11
18.091649
21
237.903865
0
LINE
8
Y_Gridlines
10
18.091649
20
237.903865
11
19.595451
21
237.532971
0
LINE
8
Y_Gridlines
10
19.595451
20
237.532971
11
21.203881
21
237.357384
0
LINE
8
Y_Gridlines
10
21.203881
20
237.357384
11
22.866212
21
237.367875
0
LINE
8
Y_Gridlines
10
22.866212
20
237.367875
11
24.531719
21
237.555214
0
LINE
8
Y_Gridlines
10
24.531719
20
237.555214
11
26.149673
21
237.910170
0
LINE
8
Y_Gridlines
10
26.149673
20
237.910170
11
27.669348
21
238.423514
0
LINE
8
Y_Gridlines
10
27.669348
20
238.423514
11
29.040017
21
239.086016
0
LINE
8
Y_Gridlines
10
29.040017
20
239.086016
11
30.210954
21
239.888445
0
LINE
8
Y_Gridlines
10
30.210954
20
239.888445
11
31.131431
21
240.821572
0
LINE
8
Y_Gridlines
10
31.131431
20
240.821572
11
31.750722
21
241.876167
0
LINE
8
Y_Gridlines
10
31.750722
20
241.876167
11
32.018100
21
243.043000
0
LINE
8
Y_Gridlines
10
32.018100
20
243.043000
11
32.014038
21
244.207972
0
LINE
8
Y_Gridlines
10
32.014038
20
244.207972
11
31.873362
21
245.270498
0
LINE
8
Y_Gridlines
10
31.873362
20
245.270498
11
31.305380
21
247.130109
0
LINE
8
Y_Gridlines
10
31.305380
20
247.130109
11
29.885362
21
250.080875
0
LINE
8
Y_Gridlines
10
29.885362
20
250.080875
11
29.526169
21
251.339631
0
LINE
8
Y_Gridlines
10
29.526169
20
251.339631
11
29.542086
21
251.951515
0
LINE
8
Y_Gridlines
10
29.542086
20
251.951515
11
29.729414
21
252.565703
0
LINE
8
Y_Gridlines
10
29.729414
20
252.565703
11
30.118957
21
253.192671
0
LINE
8
Y_Gridlines
10
30.118957
20
253.192671
11
30.741517
21
253.842893
0
LINE
8
Y_Gridlines
10
30.741517
20
253.842893
11
32.808900
21
255.255000
0
LINE
8
Y_Gridlines
10
32.808900
20
255.255000
11
35.581342
21
256.612650
0
LINE
8
Y_Gridlines
10
35.581342
20
256.612650
11
38.513148
21
257.656016
0
LINE
8
Y_Gridlines
10
38.513148
20
257.656016
11
41.557415
21
258.363217
0
LINE
8
Y_Gridlines
10
41.557415
20
258.363217
11
44.667237
21
258.712375
0
LINE
8
Y_Gridlines
10
44.667237
20
258.712375
11
47.795712
21
258.681611
0
LINE
8
Y_Gridlines
10
47.795712
20
258.681611
11
50.895933
21
258.249047
0
LINE
8
Y_Gridlines
10
50.895933
20
258.249047
11
53.920997
21
257.392803
0
LINE
8
Y_Gridlines
10
53.920997
20
257.392803
11
56.824000
21
256.091000
0
LINE
8
Y_Gridlines
10
56.824000
20
256.091000
11
59.072147
21
254.720379
0
LINE
8
Y_Gridlines
10
59.072147
20
254.720379
11
60.314473
21
253.577031
0
LINE
8
Y_Gridlines
10
60.314473
20
253.577031
11
60.629028
21
253.045592
0
LINE
8
Y_Gridlines
10
60.629028
20
253.045592
11
60.776816
21
252.516980
0
LINE
8
Y_Gridlines
10
60.776816
20
252.516980
11
60.685012
21
251.396250
0
LINE
8
Y_Gridlines
10
60.685012
20
251.396250
11
59.742320
21
248.396844
0
LINE
8
Y_Gridlines
10
59.742320
20
248.396844
11
59.343107
21
246.230215
0
LINE
8
Y_Gridlines
10
59.343107
20
246.230215
11
59.293100
21
243.427000
0
LINE
8
Y_Gridlines
10
59.293100
20
243.427000
11
59.572413
21
241.983153
0
LINE
8
Y_Gridlines
10
59.572413
20
241.983153
11
60.179522
21
240.812102
0
LINE
8
Y_Gridlines
10
60.179522
20
240.812102
11
61.067999
21
239.900327
0
LINE
8
Y_Gridlines
10
61.067999
20
239.900327
11
62.191414
21
239.234312
0
LINE
8
Y_Gridlines
10
62.191414
20
239.234312
11
63.503337
21
238.800540
0
LINE
8
Y_Gridlines
10
63.503337
20
238.800540
11
64.957340
21
238.585492
0
LINE
8
Y_Gridlines
10
64.957340
20
238.585492
11
66.506991
21
238.575651
0
LINE
8
Y_Gridlines
10
66.506991
20
238.575651
11
68.105863
21
238.757500
0
LINE
8
Y_Gridlines
10
68.105863
20
238.757500
11
69.707524
21
239.117521
0
LINE
8
Y_Gridlines
10
69.707524
20
239.117521
11
71.265546
21
239.642195
0
LINE
8
Y_Gridlines
10
71.265546
20
239.642195
11
72.733500
21
240.318007
0
LINE
8
Y_Gridlines
10
72.733500
20
240.318007
11
74.064955
21
241.131438
0
LINE
8
Y_Gridlines
10
74.064955
20
241.131438
11
75.213482
21
242.068970
0
LINE
8
Y_Gridlines
10
75.213482
20
242.068970
11
76.132651
21
243.117086
0
LINE
8
Y_Gridlines
10
76.132651
20
243.117086
11
76.776034
21
244.262269
0
LINE
8
Y_Gridlines
10
76.776034
20
244.262269
11
77.097200
21
245.491000
0
LINE
8
Y_Gridlines
10
77.097200
20
245.491000
11
77.137405
21
246.660038
0
LINE
8
Y_Gridlines
10
77.137405
20
246.660038
11
76.993113
21
247.648648
0
LINE
8
Y_Gridlines
10
76.993113
20
247.648648
11
76.700712
21
248.477638
0
LINE
8
Y_Gridlines
10
76.700712
20
248.477638
11
76.296588
21
249.167813
0
LINE
8
Y_Gridlines
10
76.296588
20
249.167813
11
75.298712
21
250.214945
0
LINE
8
Y_Gridlines
10
75.298712
20
250.214945
11
74.290575
21
250.956500
0
LINE
8
Y_Gridlines
10
74.290575
20
250.956500
11
73.563266
21
251.558930
0
LINE
8
Y_Gridlines
10
73.563266
20
251.558930
11
73.395888
21
251.859989
0
LINE
8
Y_Gridlines
10
73.395888
20
251.859989
11
73.407875
21
252.188688
0
LINE
8
Y_Gridlines
10
73.407875
20
252.188688
11
73.635614
21
252.565831
0
LINE
8
Y_Gridlines
10
73.635614
20
252.565831
11
74.115490
21
253.012227
0
LINE
8
Y_Gridlines
10
74.115490
20
253.012227
11
75.977200
21
254.196000
0
LINE
8
Y_Gridlines
10
75.977200
20
254.196000
11
77.313403
21
254.756148
0
LINE
8
Y_Gridlines
10
77.313403
20
254.756148
11
78.775481
21
255.043809
0
LINE
8
Y_Gridlines
10
78.775481
20
255.043809
11
80.347322
21
255.098307
0
LINE
8
Y_Gridlines
10
80.347322
20
255.098307
11
82.012811
21
254.958969
0
LINE
8
Y_Gridlines
10
82.012811
20
254.958969
11
85.560282
21
254.256082
0
LINE
8
Y_Gridlines
10
85.560282
20
254.256082
11
89.288988
21
253.249750
0
LINE
8
Y_Gridlines
10
89.288988
20
253.249750
11
93.070019
21
252.254574
0
LINE
8
Y_Gridlines
10
93.070019
20
252.254574
11
96.774470
21
251.585156
0
LINE
8
Y_Gridlines
10
96.774470
20
251.585156
11
98.557694
21
251.470919
0
LINE
8
Y_Gridlines
10
98.557694
20
251.470919
11
100.273433
21
251.556098
0
LINE
8
Y_Gridlines
10
100.273433
20
251.556098
11
101.905573
21
251.880016
0
LINE
8
Y_Gridlines
10
101.905573
20
251.880016
11
103.438000
21
252.482000
0
LINE
8
Y_Gridlines
10
103.438000
20
252.482000
11
105.660141
21
253.659164
0
LINE
8
Y_Gridlines
10
105.660141
20
253.659164
11
106.623875
21
254.331813
0
LINE
8
Y_Gridlines
10
106.623875
20
254.331813
11
106.729963
21
254.552493
0
LINE
8
Y_Gridlines
10
106.729963
20
254.552493
11
106.636797
21
254.735305
0
LINE
8
Y_Gridlines
10
106.636797
20
254.735305
11
106.006500
21
255.105000
0
LINE
8
Y_Gridlines
10
106.006500
20
255.105000
11
105.040578
21
255.676258
0
LINE
8
Y_Gridlines
10
105.040578
20
255.676258
11
104.046625
21
256.684438
0
LINE
8
Y_Gridlines
10
104.046625
20
256.684438
11
103.635260
21
257.425923
0
LINE
8
Y_Gridlines
10
103.635260
20
257.425923
11
103.332234
21
258.364898
0
LINE
8
Y_Gridlines
10
103.332234
20
258.364898
11
103.175998
21
259.530784
0
LINE
8
Y_Gridlines
10
103.175998
20
259.530784
11
103.205000
21
260.953000
0
LINE
8
Y_Gridlines
10
103.205000
20
260.953000
11
103.534059
21
262.405844
0
LINE
8
Y_Gridlines
10
103.534059
20
262.405844
11
104.218172
21
263.647568
0
LINE
8
Y_Gridlines
10
104.218172
20
263.647568
11
105.206059
21
264.683520
0
LINE
8
Y_Gridlines
10
105.206059
20
264.683520
11
106.446438
21
265.519047
0
LINE
8
Y_Gridlines
10
106.446438
20
265.519047
11
107.888027
21
266.159498
0
LINE
8
Y_Gridlines
10
107.888027
20
266.159498
11
109.479547
21
266.610221
0
LINE
8
Y_Gridlines
10
109.479547
20
266.610221
11
111.169715
21
266.876564
0
LINE
8
Y_Gridlines
10
111.169715
20
266.876564
11
112.907250
21
266.963875
0
LINE
8
Y_Gridlines
10
112.907250
20
266.963875
11
114.640871
21
266.877503
0
LINE
8
Y_Gridlines
10
114.640871
20
266.877503
11
116.319297
21
266.622795
0
LINE
8
Y_Gridlines
10
116.319297
20
266.622795
11
117.891246
21
266.205100
0
LINE
8
Y_Gridlines
10
117.891246
20
266.205100
11
119.305437
21
265.629766
0
LINE
8
Y_Gridlines
10
119.305437
20
265.629766
11
120.510590
21
264.902140
0
LINE
8
Y_Gridlines
10
120.510590
20
264.902140
11
121.455422
21
264.027572
0
LINE
8
Y_Gridlines
10
121.455422
20
264.027572
11
122.088652
21
263.011409
0
LINE
8
Y_Gridlines
10
122.088652
20
263.011409
11
122.359000
21
261.859000
0
LINE
8
Y_Gridlines
10
122.359000
20
261.859000
11
122.328995
21
260.715091
0
LINE
8
Y_Gridlines
10
122.328995
20
260.715091
11
122.119566
21
259.711041
0
LINE
8
Y_Gridlines
10
122.119566
20
259.711041
11
121.766472
21
258.832677
0
LINE
8
Y_Gridlines
10
121.766472
20
258.832677
11
121.305469
21
258.065828
0
LINE
8
Y_Gridlines
10
121.305469
20
258.065828
11
120.202762
21
256.809982
0
LINE
8
Y_Gridlines
10
120.202762
20
256.809982
11
119.097500
21
255.830125
0
LINE
8
Y_Gridlines
10
119.097500
20
255.830125
11
118.275738
21
255.012877
0
LINE
8
Y_Gridlines
10
118.275738
20
255.012877
11
118.060562
21
254.629801
0
LINE
8
Y_Gridlines
10
118.060562
20
254.629801
11
118.023531
21
254.244859
0
LINE
8
Y_Gridlines
10
118.023531
20
254.244859
11
118.200403
21
253.843881
0
LINE
8
Y_Gridlines
10
118.200403
20
253.843881
11
118.626934
21
253.412693
0
LINE
8
Y_Gridlines
10
118.626934
20
253.412693
11
120.372000
21
252.403000
0
LINE
8
Y_Gridlines
10
120.372000
20
252.403000
11
121.668174
21
251.986901
0
LINE
8
Y_Gridlines
10
121.668174
20
251.986901
11
123.131234
21
251.847430
0
LINE
8
Y_Gridlines
10
123.131234
20
251.847430
11
124.739865
21
251.943446
0
LINE
8
Y_Gridlines
10
124.739865
20
251.943446
11
126.472750
21
252.233812
0
LINE
8
Y_Gridlines
10
126.472750
20
252.233812
11
130.226016
21
253.233039
0
LINE
8
Y_Gridlines
10
130.226016
20
253.233039
11
134.220500
21
254.516000
0
LINE
8
Y_Gridlines
10
134.220500
20
254.516000
11
138.285672
21
255.753586
0
LINE
8
Y_Gridlines
10
138.285672
20
255.753586
11
142.251000
21
256.616687
0
LINE
8
Y_Gridlines
10
142.251000
20
256.616687
11
144.142932
21
256.804960
0
LINE
8
Y_Gridlines
10
144.142932
20
256.804960
11
145.945953
21
256.776195
0
LINE
8
Y_Gridlines
10
145.945953
20
256.776195
11
147.638748
21
256.489255
0
LINE
8
Y_Gridlines
10
147.638748
20
256.489255
11
149.200000
21
255.903000
0
LINE
8
Y_Gridlines
10
149.200000
20
255.903000
11
151.395062
21
254.653180
0
LINE
8
Y_Gridlines
10
151.395062
20
254.653180
11
151.969117
21
254.179913
0
LINE
8
Y_Gridlines
10
151.969117
20
254.179913
11
152.250250
21
253.776250
0
LINE
8
Y_Gridlines
10
152.250250
20
253.776250
11
152.280508
21
253.418571
0
LINE
8
Y_Gridlines
10
152.280508
20
253.418571
11
152.101937
21
253.083258
0
LINE
8
Y_Gridlines
10
152.101937
20
253.083258
11
151.286500
21
252.385250
0
LINE
8
Y_Gridlines
10
151.286500
20
252.385250
11
150.140312
21
251.493273
0
LINE
8
Y_Gridlines
10
150.140312
20
251.493273
11
148.999750
21
250.218375
0
LINE
8
Y_Gridlines
10
148.999750
20
250.218375
11
148.536695
21
249.378282
0
LINE
8
Y_Gridlines
10
148.536695
20
249.378282
11
148.201188
21
248.371602
0
LINE
8
Y_Gridlines
10
148.201188
20
248.371602
11
148.035273
21
247.174714
0
LINE
8
Y_Gridlines
10
148.035273
20
247.174714
11
148.081000
21
245.764000
0
LINE
8
Y_Gridlines
10
148.081000
20
245.764000
11
148.432094
21
244.323733
0
LINE
8
Y_Gridlines
10
148.432094
20
244.323733
11
149.121818
21
243.054367
0
LINE
8
Y_Gridlines
10
149.121818
20
243.054367
11
150.100957
21
241.955989
0
LINE
8
Y_Gridlines
10
150.100957
20
241.955989
11
151.320297
21
241.028687
0
LINE
8
Y_Gridlines
10
151.320297
20
241.028687
11
152.730623
21
240.272550
0
LINE
8
Y_Gridlines
10
152.730623
20
240.272550
11
154.282721
21
239.687664
0
LINE
8
Y_Gridlines
10
154.282721
20
239.687664
11
155.927376
21
239.274118
0
LINE
8
Y_Gridlines
10
155.927376
20
239.274118
11
157.615375
21
239.032000
0
LINE
8
Y_Gridlines
10
157.615375
20
239.032000
11
159.297503
21
238.961397
0
LINE
8
Y_Gridlines
10
159.297503
20
238.961397
11
160.924545
21
239.062398
0
LINE
8
Y_Gridlines
10
160.924545
20
239.062398
11
162.447287
21
239.335091
0
LINE
8
Y_Gridlines
10
162.447287
20
239.335091
11
163.816516
21
239.779562
0
LINE
8
Y_Gridlines
10
163.816516
20
239.779562
11
164.983015
21
240.395901
0
LINE
8
Y_Gridlines
10
164.983015
20
240.395901
11
165.897572
21
241.184195
0
LINE
8
Y_Gridlines
10
165.897572
20
241.184195
11
166.510972
21
242.144532
0
LINE
8
Y_Gridlines
10
166.510972
20
242.144532
11
166.774000
21
243.277000
0
LINE
8
Y_Gridlines
10
166.774000
20
243.277000
11
166.765676
21
244.436497
0
LINE
8
Y_Gridlines
10
166.765676
20
244.436497
11
166.617873
21
245.485729
0
LINE
8
Y_Gridlines
10
166.617873
20
245.485729
11
166.026359
21
247.298328
0
LINE
8
Y_Gridlines
10
166.026359
20
247.298328
11
164.517375
21
250.094625
0
LINE
8
Y_Gridlines
10
164.517375
20
250.094625
11
164.090006
21
251.258064
0
LINE
8
Y_Gridlines
10
164.090006
20
251.258064
11
164.065312
21
251.820426
0
LINE
8
Y_Gridlines
10
164.065312
20
251.820426
11
164.207453
21
252.384859
0
LINE
8
Y_Gridlines
10
164.207453
20
252.384859
11
164.547061
21
252.962600
0
LINE
8
Y_Gridlines
10
164.547061
20
252.962600
11
165.114768
21
253.564881
0
LINE
8
Y_Gridlines
10
165.114768
20
253.564881
11
167.057000
21
254.888000
0
LINE
8
Y_Gridlines
10
167.057000
20
254.888000
11
168.370168
21
255.452676
0
LINE
8
Y_Gridlines
10
168.370168
20
255.452676
11
169.763096
21
255.747424
0
LINE
8
Y_Gridlines
10
169.763096
20
255.747424
11
171.227417
21
255.809698
0
LINE
8
Y_Gridlines
10
171.227417
20
255.809698
11
172.754766
21
255.676953
0
LINE
8
Y_Gridlines
10
172.754766
20
255.676953
11
175.965084
21
254.976225
0
LINE
8
Y_Gridlines
10
175.965084
20
254.976225
11
179.327125
21
253.944875
0
LINE
8
Y_Gridlines
10
179.327125
20
253.944875
11
182.773963
21
252.882541
0
LINE
8
Y_Gridlines
10
182.773963
20
252.882541
11
186.238672
21
252.088859
0
LINE
8
Y_Gridlines
10
186.238672
20
252.088859
11
187.956814
21
251.886400
0
LINE
8
Y_Gridlines
10
187.956814
20
251.886400
11
189.654326
21
251.863467
0
LINE
8
Y_Gridlines
10
189.654326
20
251.863467
11
191.322844
21
252.057515
0
LINE
8
Y_Gridlines
10
191.322844
20
252.057515
11
192.954000
21
252.506000
0
LINE
8
Y_Gridlines
10
192.954000
20
252.506000
11
195.402656
21
253.543730
0
LINE
8
Y_Gridlines
10
195.402656
20
253.543730
11
196.108799
21
253.985309
0
LINE
8
Y_Gridlines
10
196.108799
20
253.985309
11
196.522688
21
254.399094
0
LINE
8
Y_Gridlines
10
196.522688
20
254.399094
11
196.684225
21
254.802882
0
LINE
8
Y_Gridlines
10
196.684225
20
254.802882
11
196.633312
21
255.214473
0
LINE
8
Y_Gridlines
10
196.633312
20
255.214473
11
196.053750
21
256.132250
0
LINE
8
Y_Gridlines
10
196.053750
20
256.132250
11
195.103219
21
257.294809
0
LINE
8
Y_Gridlines
10
195.103219
20
257.294809
11
194.100937
21
258.844531
0
LINE
8
Y_Gridlines
10
194.100937
20
258.844531
11
193.680146
21
259.809074
0
LINE
8
Y_Gridlines
10
193.680146
20
259.809074
11
193.366125
21
260.923801
0
LINE
8
Y_Gridlines
10
193.366125
20
260.923801
11
193.198775
21
262.206510
0
LINE
8
Y_Gridlines
10
193.198775
20
262.206510
11
193.218000
21
263.675000
0
LINE
8
Y_Gridlines
10
193.218000
20
263.675000
11
193.535719
21
265.117545
0
LINE
8
Y_Gridlines
10
193.535719
20
265.117545
11
194.203357
21
266.317170
0
LINE
8
Y_Gridlines
10
194.203357
20
266.317170
11
195.170079
21
267.283800
0
LINE
8
Y_Gridlines
10
195.170079
20
267.283800
11
196.385047
21
268.027359
0
LINE
8
Y_Gridlines
10
196.385047
20
268.027359
11
197.797423
21
268.557772
0
LINE
8
Y_Gridlines
10
197.797423
20
268.557772
11
199.356369
21
268.884963
0
LINE
8
Y_Gridlines
10
199.356369
20
268.884963
11
201.011049
21
269.018856
0
LINE
8
Y_Gridlines
10
201.011049
20
269.018856
11
202.710625
21
268.969375
0
LINE
8
Y_Gridlines
10
202.710625
20
268.969375
11
204.404260
21
268.746445
0
LINE
8
Y_Gridlines
10
204.404260
20
268.746445
11
206.041115
21
268.359990
0
LINE
8
Y_Gridlines
10
206.041115
20
268.359990
11
207.570355
21
267.819935
0
LINE
8
Y_Gridlines
10
207.570355
20
267.819935
11
208.941141
21
267.136203
0
LINE
8
Y_Gridlines
10
208.941141
20
267.136203
11
210.102635
21
266.318719
0
LINE
8
Y_Gridlines
10
210.102635
20
266.318719
11
211.004002
21
265.377408
0
LINE
8
Y_Gridlines
10
211.004002
20
265.377408
11
211.594403
21
264.322194
0
LINE
8
Y_Gridlines
10
211.594403
20
264.322194
11
211.823000
21
263.163000
0
LINE
8
Y_Gridlines
10
211.823000
20
263.163000
11
211.756949
21
261.991765
0
LINE
8
Y_Gridlines
10
211.756949
20
261.991765
11
211.520762
21
260.889900
0
LINE
8
Y_Gridlines
10
211.520762
20
260.889900
11
210.678781
21
258.873078
0
LINE
8
Y_Gridlines
10
210.678781
20
258.873078
11
209.578660
21
257.070123
0
LINE
8
Y_Gridlines
10
209.578660
20
257.070123
11
208.502000
21
255.438625
0
LINE
8
Y_Gridlines
10
208.502000
20
255.438625
11
207.730402
21
253.936174
0
LINE
8
Y_Gridlines
10
207.730402
20
253.936174
11
207.547002
21
253.220088
0
LINE
8
Y_Gridlines
10
207.547002
20
253.220088
11
207.545469
21
252.520359
0
LINE
8
Y_Gridlines
10
207.545469
20
252.520359
11
207.761001
21
251.831688
0
LINE
8
Y_Gridlines
10
207.761001
20
251.831688
11
208.228801
21
251.148771
0
LINE
8
Y_Gridlines
10
208.228801
20
251.148771
11
208.984067
21
250.466309
0
LINE
8
Y_Gridlines
10
208.984067
20
250.466309
11
210.062000
21
249.779000
0
LINE
8
Y_Gridlines
10
210.062000
20
249.779000
11
211.318207
21
249.211509
0
LINE
8
Y_Gridlines
10
211.318207
20
249.211509
11
212.576779
21
248.874227
0
LINE
8
Y_Gridlines
10
212.576779
20
248.874227
11
213.826208
21
248.740440
0
LINE
8
Y_Gridlines
10
213.826208
20
248.740440
11
215.054984
21
248.783437
0
LINE
8
Y_Gridlines
10
215.054984
20
248.783437
11
217.404541
21
249.292930
0
LINE
8
Y_Gridlines
10
217.404541
20
249.292930
11
219.533375
21
250.189000
0
LINE
8
Y_Gridlines
10
219.533375
20
250.189000
11
221.349412
21
251.257945
0
LINE
8
Y_Gridlines
10
221.349412
20
251.257945
11
222.760578
21
252.286063
0
LINE
8
Y_Gridlines
10
222.760578
20
252.286063
11
224.000000
21
253.365000
0
LINE
8
Y_Gridlines
10
0.000000
20
190.005000
11
1.119335
21
189.123547
0
LINE
8
Y_Gridlines
10
1.119335
20
189.123547
11
2.445717
21
188.293189
0
LINE
8
Y_Gridlines
10
2.445717
20
188.293189
11
4.218544
21
187.444375
0
LINE
8
Y_Gridlines
10
4.218544
20
187.444375
11
6.389290
21
186.758076
0
LINE
8
Y_Gridlines
10
6.389290
20
186.758076
11
8.909430
21
186.415266
0
LINE
8
Y_Gridlines
10
8.909430
20
186.415266
11
10.285360
21
186.429222
0
LINE
8
Y_Gridlines
10
10.285360
20
186.429222
11
11.730442
21
186.596916
0
LINE
8
Y_Gridlines
10
11.730442
20
186.596916
11
13.238611
21
186.940968
0
LINE
8
Y_Gridlines
10
13.238611
20
186.940968
11
14.803800
21
187.484000
0
LINE
8
Y_Gridlines
10
14.803800
20
187.484000
11
17.207654
21
188.646777
0
LINE
8
Y_Gridlines
10
17.207654
20
188.646777
11
17.886320
21
189.150569
0
LINE
8
Y_Gridlines
10
17.886320
20
189.150569
11
18.270681
21
189.625219
0
LINE
8
Y_Gridlines
10
18.270681
20
189.625219
11
18.401638
21
190.087669
0
LINE
8
Y_Gridlines
10
18.401638
20
190.087669
11
18.320093
21
190.554863
0
LINE
8
Y_Gridlines
10
18.320093
20
190.554863
11
17.683100
21
191.571250
0
LINE
8
Y_Gridlines
10
17.683100
20
191.571250
11
16.686913
21
192.809918
0
LINE
8
Y_Gridlines
10
16.686913
20
192.809918
11
15.658744
21
194.406406
0
LINE
8
Y_Gridlines
10
15.658744
20
194.406406
11
15.234919
21
195.381189
0
LINE
8
Y_Gridlines
10
15.234919
20
195.381189
11
14.925802
21
196.496254
0
LINE
8
Y_Gridlines
10
14.925802
20
196.496254
11
14.772296
21
197.768543
0
LINE
8
Y_Gridlines
10
14.772296
20
197.768543
11
14.815300
21
199.215000
0
LINE
8
Y_Gridlines
10
14.815300
20
199.215000
11
15.113019
21
200.642274
0
LINE
8
Y_Gridlines
10
15.113019
20
200.642274
11
15.671520
21
201.849566
0
LINE
8
Y_Gridlines
10
15.671520
20
201.849566
11
16.453498
21
202.843208
0
LINE
8
Y_Gridlines
10
16.453498
20
202.843208
11
17.421650
21
203.629531
0
LINE
8
Y_Gridlines
10
17.421650
20
203.629531
11
18.538673
21
204.214866
0
LINE
8
Y_Gridlines
10
18.538673
20
204.214866
11
19.767262
21
204.605543
0
LINE
8
Y_Gridlines
10
19.767262
20
204.605543
11
21.070114
21
204.807894
0
LINE
8
Y_Gridlines
10
21.070114
20
204.807894
11
22.409925
21
204.828250
0
LINE
8
Y_Gridlines
10
22.409925
20
204.828250
11
23.749392
21
204.672942
0
LINE
8
Y_Gridlines
10
23.749392
20
204.672942
11
25.051210
21
204.348301
0
LINE
8
Y_Gridlines
10
25.051210
20
204.348301
11
26.278077
21
203.860658
0
LINE
8
Y_Gridlines
10
26.278077
20
203.860658
11
27.392688
21
203.216344
0
LINE
8
Y_Gridlines
10
27.392688
20
203.216344
11
28.357739
21
202.421690
0
LINE
8
Y_Gridlines
10
28.357739
20
202.421690
11
29.135927
21
201.483027
0
LINE
8
Y_Gridlines
10
29.135927
20
201.483027
11
29.689949
21
200.406687
0
LINE
8
Y_Gridlines
10
29.689949
20
200.406687
11
29.982500
21
199.199000
0
LINE
8
Y_Gridlines
10
29.982500
20
199.199000
11
30.047574
21
198.013134
0
LINE
8
Y_Gridlines
10
30.047574
20
198.013134
11
29.965144
21
196.985992
0
LINE
8
Y_Gridlines
10
29.965144
20
196.985992
11
29.484642
21
195.335625
0
LINE
8
Y_Gridlines
10
29.484642
20
195.335625
11
28.794748
21
194.103383
0
LINE
8
Y_Gridlines
10
28.794748
20
194.103383
11
28.149213
21
193.144750
0
LINE
8
Y_Gridlines
10
28.149213
20
193.144750
11
27.801788
21
192.315211
0
LINE
8
Y_Gridlines
10
27.801788
20
192.315211
11
27.819165
21
191.903690
0
LINE
8
Y_Gridlines
10
27.819165
20
191.903690
11
28.006227
21
191.470250
0
LINE
8
Y_Gridlines
10
28.006227
20
191.470250
11
29.016280
21
190.465352
0
LINE
8
Y_Gridlines
10
29.016280
20
190.465352
11
31.085700
21
189.156000
0
LINE
8
Y_Gridlines
10
31.085700
20
189.156000
11
34.020432
21
187.804436
0
LINE
8
Y_Gridlines
10
34.020432
20
187.804436
11
37.376706
21
186.776672
0
LINE
8
Y_Gridlines
10
37.376706
20
186.776672
11
41.033702
21
186.083854
0
LINE
8
Y_Gridlines
10
41.033702
20
186.083854
11
44.870600
21
185.737125
0
LINE
8
Y_Gridlines
10
44.870600
20
185.737125
11
48.766579
21
185.747631
0
LINE
8
Y_Gridlines
10
48.766579
20
185.747631
11
52.600819
21
186.126516
0
LINE
8
Y_Gridlines
10
52.600819
20
186.126516
11
56.252499
21
186.884924
0
LINE
8
Y_Gridlines
10
56.252499
20
186.884924
11
59.600800
21
188.034000
0
LINE
8
Y_Gridlines
10
59.600800
20
188.034000
11
61.945286
21
189.129158
0
LINE
8
Y_Gridlines
10
61.945286
20
189.129158
11
62.893692
21
189.851391
0
LINE
8
Y_Gridlines
10
62.893692
20
189.851391
11
62.951029
21
190.135359
0
LINE
8
Y_Gridlines
10
62.951029
20
190.135359
11
62.787343
21
190.401334
0
LINE
8
Y_Gridlines
10
62.787343
20
190.401334
11
61.967562
21
190.979625
0
LINE
8
Y_Gridlines
10
61.967562
20
190.979625
11
60.775674
21
191.786900
0
LINE
8
Y_Gridlines
10
60.775674
20
191.786900
11
59.553002
21
193.023797
0
LINE
8
Y_Gridlines
10
59.553002
20
193.023797
11
59.036785
21
193.866052
0
LINE
8
Y_Gridlines
10
59.036785
20
193.866052
11
58.640869
21
194.890951
0
LINE
8
Y_Gridlines
10
58.640869
20
194.890951
11
58.407919
21
196.123574
0
LINE
8
Y_Gridlines
10
58.407919
20
196.123574
11
58.380600
21
197.589000
0
LINE
8
Y_Gridlines
10
58.380600
20
197.589000
11
58.642094
21
199.064222
0
LINE
8
Y_Gridlines
10
58.642094
20
199.064222
11
59.217302
21
200.313854
0
LINE
8
Y_Gridlines
10
59.217302
20
200.313854
11
60.061412
21
201.344969
0
LINE
8
Y_Gridlines
10
60.061412
20
201.344969
11
61.129611
21
202.164641
0
LINE
8
Y_Gridlines
10
61.129611
20
202.164641
11
62.377088
21
202.779944
0
LINE
8
Y_Gridlines
10
62.377088
20
202.779944
11
63.759030
21
203.197951
0
LINE
8
Y_Gridlines
10
63.759030
20
203.197951
11
65.230626
21
203.425737
0
LINE
8
Y_Gridlines
10
65.230626
20
203.425737
11
66.747062
21
203.470375
0
LINE
8
Y_Gridlines
10
66.747062
20
203.470375
11
68.263529
21
203.338939
0
LINE
8
Y_Gridlines
10
68.263529
20
203.338939
11
69.735212
21
203.038502
0
LINE
8
Y_Gridlines
10
69.735212
20
203.038502
11
71.117301
21
202.576138
0
LINE
8
Y_Gridlines
10
71.117301
20
202.576138
11
72.364983
21
201.958922
0
LINE
8
Y_Gridlines
10
72.364983
20
201.958922
11
73.433446
21
201.193926
0
LINE
8
Y_Gridlines
10
73.433446
20
201.193926
11
74.277878
21
200.288225
0
LINE
8
Y_Gridlines
10
74.277878
20
200.288225
11
74.853466
21
199.248891
0
LINE
8
Y_Gridlines
10
74.853466
20
199.248891
11
75.115400
21
198.083000
0
LINE
8
Y_Gridlines
10
75.115400
20
198.083000
11
75.121235
21
196.930822
0
LINE
8
Y_Gridlines
10
75.121235
20
196.930822
11
74.979155
21
195.917967
0
LINE
8
Y_Gridlines
10
74.979155
20
195.917967
11
74.375764
21
194.252797
0
LINE
8
Y_Gridlines
10
74.375764
20
194.252797
11
73.554257
21
192.972635
0
LINE
8
Y_Gridlines
10
73.554257
20
192.972635
11
72.763662
21
191.962625
0
LINE
8
Y_Gridlines
10
72.763662
20
191.962625
11
72.253010
21
191.107912
0
LINE
8
Y_Gridlines
10
72.253010
20
191.107912
11
72.180484
21
190.702900
0
LINE
8
Y_Gridlines
10
72.180484
20
190.702900
11
72.271330
21
190.293641
0
LINE
8
Y_Gridlines
10
72.271330
20
190.293641
11
72.556675
21
189.865778
0
LINE
8
Y_Gridlines
10
72.556675
20
189.865778
11
73.067650
21
189.404955
0
LINE
8
Y_Gridlines
10
73.067650
20
189.404955
11
74.891000
21
188.327000
0
LINE
8
Y_Gridlines
10
74.891000
20
188.327000
11
77.644699
21
187.205982
0
LINE
8
Y_Gridlines
10
77.644699
20
187.205982
11
80.962900
21
186.285484
0
LINE
8
Y_Gridlines
10
80.962900
20
186.285484
11
84.690770
21
185.597838
0
LINE
8
Y_Gridlines
10
84.690770
20
185.597838
11
88.673475
21
185.175375
0
LINE
8
Y_Gridlines
10
88.673475
20
185.175375
11
92.756184
21
185.050428
0
LINE
8
Y_Gridlines
10
92.756184
20
185.050428
11
96.784062
21
185.255328
0
LINE
8
Y_Gridlines
10
96.784062
20
185.255328
11
100.602279
21
185.822408
0
LINE
8
Y_Gridlines
10
100.602279
20
185.822408
11
104.056000
21
186.784000
0
LINE
8
Y_Gridlines
10
104.056000
20
186.784000
11
105.432095
21
187.349314
0
LINE
8
Y_Gridlines
10
105.432095
20
187.349314
11
106.373201
21
187.883607
0
LINE
8
Y_Gridlines
10
106.373201
20
187.883607
11
106.928734
21
188.399406
0
LINE
8
Y_Gridlines
10
106.928734
20
188.399406
11
107.148109
21
188.909234
0
LINE
8
Y_Gridlines
10
107.148109
20
188.909234
11
107.080745
21
189.425620
0
LINE
8
Y_Gridlines
10
107.080745
20
189.425620
11
106.776057
21
189.961088
0
LINE
8
Y_Gridlines
10
106.776057
20
189.961088
11
105.652375
21
191.139375
0
LINE
8
Y_Gridlines
10
105.652375
20
191.139375
11
104.172396
21
192.544303
0
LINE
8
Y_Gridlines
10
104.172396
20
192.544303
11
102.731453
21
194.276078
0
LINE
8
Y_Gridlines
10
102.731453
20
194.276078
11
102.149161
21
195.295848
0
LINE
8
Y_Gridlines
10
102.149161
20
195.295848
11
101.724877
21
196.434908
0
LINE
8
Y_Gridlines
10
101.724877
20
196.434908
11
101.508018
21
197.705783
0
LINE
8
Y_Gridlines
10
101.508018
20
197.705783
11
101.548000
21
199.121000
0
LINE
8
Y_Gridlines
10
101.548000
20
199.121000
11
101.901737
21
200.517529
0
LINE
8
Y_Gridlines
10
101.901737
20
200.517529
11
102.563928
21
201.724807
0
LINE
8
Y_Gridlines
10
102.563928
20
201.724807
11
103.490666
21
202.744060
0
LINE
8
Y_Gridlines
10
103.490666
20
202.744060
11
104.638047
21
203.576516
0
LINE
8
Y_Gridlines
10
104.638047
20
203.576516
11
105.962164
21
204.223399
0
LINE
8
Y_Gridlines
10
105.962164
20
204.223399
11
107.419111
21
204.685936
0
LINE
8
Y_Gridlines
10
107.419111
20
204.685936
11
108.964984
21
204.965352
0
LINE
8
Y_Gridlines
10
108.964984
20
204.965352
11
110.555875
21
205.062875
0
LINE
8
Y_Gridlines
10
110.555875
20
205.062875
11
112.147880
21
204.979730
0
LINE
8
Y_Gridlines
10
112.147880
20
204.979730
11
113.697092
21
204.717143
0
LINE
8
Y_Gridlines
10
113.697092
20
204.717143
11
115.159606
21
204.276340
0
LINE
8
Y_Gridlines
10
115.159606
20
204.276340
11
116.491516
21
203.658547
0
LINE
8
Y_Gridlines
10
116.491516
20
203.658547
11
117.648916
21
202.864990
0
LINE
8
Y_Gridlines
10
117.648916
20
202.864990
11
118.587900
21
201.896896
0
LINE
8
Y_Gridlines
10
118.587900
20
201.896896
11
119.264564
21
200.755491
0
LINE
8
Y_Gridlines
10
119.264564
20
200.755491
11
119.635000
21
199.442000
0
LINE
8
Y_Gridlines
10
119.635000
20
199.442000
11
119.798869
21
196.940268
0
LINE
8
Y_Gridlines
10
119.798869
20
196.940268
11
119.614516
21
194.957453
0
LINE
8
Y_Gridlines
10
119.614516
20
194.957453
11
119.005375
21
192.108375
0
LINE
8
Y_Gridlines
10
119.005375
20
192.108375
11
118.982705
21
191.022010
0
LINE
8
Y_Gridlines
10
118.982705
20
191.022010
11
119.416047
21
190.014359
0
LINE
8
Y_Gridlines
10
119.416047
20
190.014359
11
120.506459
21
188.975373
0
LINE
8
Y_Gridlines
10
120.506459
20
188.975373
11
122.455000
21
187.795000
0
LINE
8
Y_Gridlines
10
122.455000
20
187.795000
11
123.717012
21
187.304424
0
LINE
8
Y_Gridlines
10
123.717012
20
187.304424
11
125.053719
21
187.093518
0
LINE
8
Y_Gridlines
10
125.053719
20
187.093518
11
126.457504
21
187.121887
0
LINE
8
Y_Gridlines
10
126.457504
20
187.121887
11
127.920750
21
187.349141
0
LINE
8
Y_Gridlines
10
127.920750
20
187.349141
11
130.995156
21
188.238725
0
LINE
8
Y_Gridlines
10
130.995156
20
188.238725
11
134.216000
21
189.439125
0
LINE
8
Y_Gridlines
10
134.216000
20
189.439125
11
137.522344
21
190.627197
0
LINE
8
Y_Gridlines
10
137.522344
20
190.627197
11
140.853250
21
191.479797
0
LINE
8
Y_Gridlines
10
140.853250
20
191.479797
11
142.508871
21
191.679312
0
LINE
8
Y_Gridlines
10
142.508871
20
191.679312
11
144.147781
21
191.673779
0
LINE
8
Y_Gridlines
10
144.147781
20
191.673779
11
145.762363
21
191.422806
0
LINE
8
Y_Gridlines
10
145.762363
20
191.422806
11
147.345000
21
190.886000
0
LINE
8
Y_Gridlines
10
147.345000
20
190.886000
11
149.753650
21
189.660020
0
LINE
8
Y_Gridlines
10
149.753650
20
189.660020
11
150.922891
21
188.664406
0
LINE
8
Y_Gridlines
10
150.922891
20
188.664406
11
151.136383
21
188.210250
0
LINE
8
Y_Gridlines
10
151.136383
20
188.210250
11
151.152404
21
187.762402
0
LINE
8
Y_Gridlines
10
151.152404
20
187.762402
11
150.741875
21
186.817250
0
LINE
8
Y_Gridlines
10
150.741875
20
186.817250
11
149.990986
21
185.692191
0
LINE
8
Y_Gridlines
10
149.990986
20
185.692191
11
149.199422
21
184.250469
0
LINE
8
Y_Gridlines
10
149.199422
20
184.250469
11
148.666865
21
182.355324
0
LINE
8
Y_Gridlines
10
148.666865
20
182.355324
11
148.591366
21
181.194982
0
LINE
8
Y_Gridlines
10
148.591366
20
181.194982
11
148.693000
21
179.870000
0
LINE
8
Y_Gridlines
10
148.693000
20
179.870000
11
149.064582
21
178.578911
0
LINE
8
Y_Gridlines
10
149.064582
20
178.578911
11
149.744295
21
177.525035
0
LINE
8
Y_Gridlines
10
149.744295
20
177.525035
11
150.687654
21
176.698462
0
LINE
8
Y_Gridlines
10
150.687654
20
176.698462
11
151.850172
21
176.089281
0
LINE
8
Y_Gridlines
10
151.850172
20
176.089281
11
153.187364
21
175.687581
0
LINE
8
Y_Gridlines
10
153.187364
20
175.687581
11
154.654744
21
175.483449
0
LINE
8
Y_Gridlines
10
154.654744
20
175.483449
11
156.207826
21
175.466976
0
LINE
8
Y_Gridlines
10
156.207826
20
175.466976
11
157.802125
21
175.628250
0
LINE
8
Y_Gridlines
10
157.802125
20
175.628250
11
159.393154
21
175.957360
0
LINE
8
Y_Gridlines
10
159.393154
20
175.957360
11
160.936428
21
176.444395
0
LINE
8
Y_Gridlines
10
160.936428
20
176.444395
11
162.387460
21
177.079443
0
LINE
8
Y_Gridlines
10
162.387460
20
177.079443
11
163.701766
21
177.852594
0
LINE
8
Y_Gridlines
10
163.701766
20
177.852594
11
164.834858
21
178.753936
0
LINE
8
Y_Gridlines
10
164.834858
20
178.753936
11
165.742252
21
179.773559
0
LINE
8
Y_Gridlines
10
165.742252
20
179.773559
11
166.379461
21
180.901550
0
LINE
8
Y_Gridlines
10
166.379461
20
180.901550
11
166.702000
21
182.128000
0
LINE
8
Y_Gridlines
10
166.702000
20
182.128000
11
166.764152
21
183.311796
0
LINE
8
Y_Gridlines
10
166.764152
20
183.311796
11
166.671355
21
184.331193
0
LINE
8
Y_Gridlines
10
166.671355
20
184.331193
11
166.149906
21
185.951109
0
LINE
8
Y_Gridlines
10
166.149906
20
185.951109
11
165.395629
21
187.136377
0
LINE
8
Y_Gridlines
10
165.395629
20
187.136377
11
164.666500
21
188.035625
0
LINE
8
Y_Gridlines
10
164.666500
20
188.035625
11
164.220496
21
188.797482
0
LINE
8
Y_Gridlines
10
164.220496
20
188.797482
11
164.184284
21
189.173336
0
LINE
8
Y_Gridlines
10
164.184284
20
189.173336
11
164.315594
21
189.570578
0
LINE
8
Y_Gridlines
10
164.315594
20
189.570578
11
165.209770
21
190.503541
0
LINE
8
Y_Gridlines
10
165.209770
20
190.503541
11
167.161000
21
191.745000
0
LINE
8
Y_Gridlines
10
167.161000
20
191.745000
11
169.889947
21
193.095271
0
LINE
8
Y_Gridlines
10
169.889947
20
193.095271
11
172.896828
21
194.224047
0
LINE
8
Y_Gridlines
10
172.896828
20
194.224047
11
176.108951
21
195.084018
0
LINE
8
Y_Gridlines
10
176.108951
20
195.084018
11
179.453625
21
195.627875
0
LINE
8
Y_Gridlines
10
179.453625
20
195.627875
11
182.858158
21
195.808311
0
LINE
8
Y_Gridlines
10
182.858158
20
195.808311
11
186.249859
21
195.578016
0
LINE
8
Y_Gridlines
10
186.249859
20
195.578016
11
189.556037
21
194.889682
0
LINE
8
Y_Gridlines
10
189.556037
20
194.889682
11
192.704000
21
193.696000
0
LINE
8
Y_Gridlines
10
192.704000
20
193.696000
11
195.051178
21
192.330508
0
LINE
8
Y_Gridlines
10
195.051178
20
192.330508
11
195.754475
21
191.699274
0
LINE
8
Y_Gridlines
10
195.754475
20
191.699274
11
196.191172
21
191.083750
0
LINE
8
Y_Gridlines
10
196.191172
20
191.083750
11
196.396465
21
190.469960
0
LINE
8
Y_Gridlines
10
196.396465
20
190.469960
11
196.405549
21
189.843930
0
LINE
8
Y_Gridlines
10
196.405549
20
189.843930
11
195.975875
21
188.499250
0
LINE
8
Y_Gridlines
10
195.975875
20
188.499250
11
195.183717
21
186.937914
0
LINE
8
Y_Gridlines
10
195.183717
20
186.937914
11
194.310641
21
185.048125
0
LINE
8
Y_Gridlines
10
194.310641
20
185.048125
11
193.638213
21
182.718086
0
LINE
8
Y_Gridlines
10
193.638213
20
182.718086
11
193.465232
21
181.353036
0
LINE
8
Y_Gridlines
10
193.465232
20
181.353036
11
193.448000
21
179.836000
0
LINE
8
Y_Gridlines
10
193.448000
20
179.836000
11
193.712374
21
178.365250
0
LINE
8
Y_Gridlines
10
193.712374
20
178.365250
11
194.327271
21
177.142092
0
LINE
8
Y_Gridlines
10
194.327271
20
177.142092
11
195.243045
21
176.156540
0
LINE
8
Y_Gridlines
10
195.243045
20
176.156540
11
196.410047
21
175.398609
0
LINE
8
Y_Gridlines
10
196.410047
20
175.398609
11
197.778629
21
174.858313
0
LINE
8
Y_Gridlines
10
197.778629
20
174.858313
11
199.299143
21
174.525666
0
LINE
8
Y_Gridlines
10
199.299143
20
174.525666
11
200.921941
21
174.390682
0
LINE
8
Y_Gridlines
10
200.921941
20
174.390682
11
202.597375
21
174.443375
0
LINE
8
Y_Gridlines
10
202.597375
20
174.443375
11
204.275798
21
174.673760
0
LINE
8
Y_Gridlines
10
204.275798
20
174.673760
11
205.907561
21
175.071850
0
LINE
8
Y_Gridlines
10
205.907561
20
175.071850
11
207.443016
21
175.627659
0
LINE
8
Y_Gridlines
10
207.443016
20
175.627659
11
208.832516
21
176.331203
0
LINE
8
Y_Gridlines
10
208.832516
20
176.331203
11
210.026412
21
177.172495
0
LINE
8
Y_Gridlines
10
210.026412
20
177.172495
11
210.975057
21
178.141549
0
LINE
8
Y_Gridlines
10
210.975057
20
178.141549
11
211.628802
21
179.228379
0
LINE
8
Y_Gridlines
10
211.628802
20
179.228379
11
211.938000
21
180.423000
0
LINE
8
Y_Gridlines
10
211.938000
20
180.423000
11
211.932421
21
181.608847
0
LINE
8
Y_Gridlines
10
211.932421
20
181.608847
11
211.703664
21
182.683717
0
LINE
8
Y_Gridlines
10
211.703664
20
182.683717
11
211.294825
21
183.659161
0
LINE
8
Y_Gridlines
10
211.294825
20
183.659161
11
210.749000
21
184.546734
0
LINE
8
Y_Gridlines
10
210.749000
20
184.546734
11
209.418773
21
186.104479
0
LINE
8
Y_Gridlines
10
209.418773
20
186.104479
11
208.057750
21
187.449375
0
LINE
8
Y_Gridlines
10
208.057750
20
187.449375
11
207.010695
21
188.673850
0
LINE
8
Y_Gridlines
10
207.010695
20
188.673850
11
206.712646
21
189.269812
0
LINE
8
Y_Gridlines
10
206.712646
20
189.269812
11
206.622375
21
189.870328
0
LINE
8
Y_Gridlines
10
206.622375
20
189.870328
11
206.782979
21
190.486952
0
LINE
8
Y_Gridlines
10
206.782979
20
190.486952
11
207.237555
21
191.131236
0
LINE
8
Y_Gridlines
10
207.237555
20
191.131236
11
208.029196
21
191.814735
0
LINE
8
Y_Gridlines
10
208.029196
20
191.814735
11
209.201000
21
192.549000
0
LINE
8
Y_Gridlines
10
209.201000
20
192.549000
11
210.576630
21
193.191639
0
LINE
8
Y_Gridlines
10
210.576630
20
193.191639
11
211.943990
21
193.609084
0
LINE
8
Y_Gridlines
10
211.943990
20
193.609084
11
213.291977
21
193.826686
0
LINE
8
Y_Gridlines
10
213.291977
20
193.826686
11
214.609484
21
193.869797
0
LINE
8
Y_Gridlines
10
214.609484
20
193.869797
11
217.108643
21
193.533955
0
LINE
8
Y_Gridlines
10
217.108643
20
193.533955
11
219.352625
21
192.804375
0
LINE
8
Y_Gridlines
10
219.352625
20
192.804375
11
221.252592
21
191.883873
0
LINE
8
Y_Gridlines
10
221.252592
20
191.883873
11
222.719703
21
190.975266
0
LINE
8
Y_Gridlines
10
222.719703
20
190.975266
11
224.000000
21
190.005000
0
LINE
8
Y_Gridlines
10
0.000000
20
126.645000
11
0.759102
21
127.668453
0
LINE
8
Y_Gridlines
10
0.759102
20
127.668453
11
1.709029
21
128.635670
0
LINE
8
Y_Gridlines
10
1.709029
20
128.635670
11
3.040139
21
129.629125
0
LINE
8
Y_Gridlines
10
3.040139
20
129.629125
11
4.753131
21
130.440752
0
LINE
8
Y_Gridlines
10
4.753131
20
130.440752
11
6.848706
21
130.862484
0
LINE
8
Y_Gridlines
10
6.848706
20
130.862484
11
8.040180
21
130.862119
0
LINE
8
Y_Gridlines
10
8.040180
20
130.862119
11
9.327562
21
130.686256
0
LINE
8
Y_Gridlines
10
9.327562
20
130.686256
11
10.710940
21
130.308885
0
LINE
8
Y_Gridlines
10
10.710940
20
130.308885
11
12.190400
21
129.704000
0
LINE
8
Y_Gridlines
10
12.190400
20
129.704000
11
14.568262
21
128.471812
0
LINE
8
Y_Gridlines
10
14.568262
20
128.471812
11
15.774806
21
127.566438
0
LINE
8
Y_Gridlines
10
15.774806
20
127.566438
11
16.024608
21
127.180611
0
LINE
8
Y_Gridlines
10
16.024608
20
127.180611
11
16.084510
21
126.809656
0
LINE
8
Y_Gridlines
10
16.084510
20
126.809656
11
15.771850
21
126.023250
0
LINE
8
Y_Gridlines
10
15.771850
20
126.023250
11
15.111302
21
125.029000
0
LINE
8
Y_Gridlines
10
15.111302
20
125.029000
11
14.377344
21
123.648688
0
LINE
8
Y_Gridlines
10
14.377344
20
123.648688
11
13.844451
21
121.704094
0
LINE
8
Y_Gridlines
10
13.844451
20
121.704094
11
13.739178
21
120.464498
0
LINE
8
Y_Gridlines
10
13.739178
20
120.464498
11
13.787100
21
119.017000
0
LINE
8
Y_Gridlines
10
13.787100
20
119.017000
11
14.105115
21
117.540791
0
LINE
8
Y_Gridlines
10
14.105115
20
117.540791
11
14.755924
21
116.231090
0
LINE
8
Y_Gridlines
10
14.755924
20
116.231090
11
15.692543
21
115.090227
0
LINE
8
Y_Gridlines
10
15.692543
20
115.090227
11
16.867988
21
114.120531
0
LINE
8
Y_Gridlines
10
16.867988
20
114.120531
11
18.235272
21
113.324332
0
LINE
8
Y_Gridlines
10
18.235272
20
113.324332
11
19.747413
21
112.703957
0
LINE
8
Y_Gridlines
10
19.747413
20
112.703957
11
21.357426
21
112.261737
0
LINE
8
Y_Gridlines
10
21.357426
20
112.261737
11
23.018325
21
112.000000
0
LINE
8
Y_Gridlines
10
23.018325
20
112.000000
11
24.683127
21
111.921076
0
LINE
8
Y_Gridlines
10
24.683127
20
111.921076
11
26.304846
21
112.027293
0
LINE
8
Y_Gridlines
10
26.304846
20
112.027293
11
27.836499
21
112.320981
0
LINE
8
Y_Gridlines
10
27.836499
20
112.320981
11
29.231100
21
112.804469
0
LINE
8
Y_Gridlines
10
29.231100
20
112.804469
11
30.441665
21
113.480085
0
LINE
8
Y_Gridlines
10
30.441665
20
113.480085
11
31.421210
21
114.350160
0
LINE
8
Y_Gridlines
10
31.421210
20
114.350160
11
32.122750
21
115.417022
0
LINE
8
Y_Gridlines
10
32.122750
20
115.417022
11
32.499300
21
116.683000
0
LINE
8
Y_Gridlines
10
32.499300
20
116.683000
11
32.599216
21
117.968668
0
LINE
8
Y_Gridlines
10
32.599216
20
117.968668
11
32.525162
21
119.103514
0
LINE
8
Y_Gridlines
10
32.525162
20
119.103514
11
31.992836
21
120.983547
0
LINE
8
Y_Gridlines
10
31.992836
20
120.983547
11
31.177701
21
122.448713
0
LINE
8
Y_Gridlines
10
31.177701
20
122.448713
11
30.355137
21
123.624625
0
LINE
8
Y_Gridlines
10
30.355137
20
123.624625
11
29.800526
21
124.636896
0
LINE
8
Y_Gridlines
10
29.800526
20
124.636896
11
29.709758
21
125.120921
0
LINE
8
Y_Gridlines
10
29.709758
20
125.120921
11
29.789245
21
125.611141
0
LINE
8
Y_Gridlines
10
29.789245
20
125.611141
11
30.073411
21
126.123257
0
LINE
8
Y_Gridlines
10
30.073411
20
126.123257
11
30.596677
21
126.672971
0
LINE
8
Y_Gridlines
10
30.596677
20
126.672971
11
32.498200
21
127.948000
0
LINE
8
Y_Gridlines
10
32.498200
20
127.948000
11
35.172637
21
129.159316
0
LINE
8
Y_Gridlines
10
35.172637
20
129.159316
11
38.081487
21
129.961906
0
LINE
8
Y_Gridlines
10
38.081487
20
129.961906
11
41.174144
21
130.380355
0
LINE
8
Y_Gridlines
10
41.174144
20
130.380355
11
44.400000
21
130.439250
0
LINE
8
Y_Gridlines
10
44.400000
20
130.439250
11
47.708450
21
130.163176
0
LINE
8
Y_Gridlines
10
47.708450
20
130.163176
11
51.048888
21
129.576719
0
LINE
8
Y_Gridlines
10
51.048888
20
129.576719
11
54.370706
21
128.704465
0
LINE
8
Y_Gridlines
10
54.370706
20
128.704465
11
57.623300
21
127.571000
0
LINE
8
Y_Gridlines
10
57.623300
20
127.571000
11
60.129169
21
126.543076
0
LINE
8
Y_Gridlines
10
60.129169
20
126.543076
11
61.430442
21
125.845609
0
LINE
8
Y_Gridlines
10
61.430442
20
125.845609
11
61.716528
21
125.561995
0
LINE
8
Y_Gridlines
10
61.716528
20
125.561995
11
61.806073
21
125.290432
0
LINE
8
Y_Gridlines
10
61.806073
20
125.290432
11
61.535013
21
124.689375
0
LINE
8
Y_Gridlines
10
61.535013
20
124.689375
11
60.896213
21
123.854271
0
LINE
8
Y_Gridlines
10
60.896213
20
123.854271
11
60.168627
21
122.596953
0
LINE
8
Y_Gridlines
10
60.168627
20
122.596953
11
59.631205
21
120.729252
0
LINE
8
Y_Gridlines
10
59.631205
20
120.729252
11
59.520978
21
119.507705
0
LINE
8
Y_Gridlines
10
59.520978
20
119.507705
11
59.562900
21
118.063000
0
LINE
8
Y_Gridlines
10
59.562900
20
118.063000
11
59.868740
21
116.602480
0
LINE
8
Y_Gridlines
10
59.868740
20
116.602480
11
60.496696
21
115.347246
0
LINE
8
Y_Gridlines
10
60.496696
20
115.347246
11
61.401279
21
114.293850
0
LINE
8
Y_Gridlines
10
61.401279
20
114.293850
11
62.537000
21
113.438844
0
LINE
8
Y_Gridlines
10
62.537000
20
113.438844
11
63.858369
21
112.778779
0
LINE
8
Y_Gridlines
10
63.858369
20
112.778779
11
65.319898
21
112.310207
0
LINE
8
Y_Gridlines
10
65.319898
20
112.310207
11
66.876096
21
112.029680
0
LINE
8
Y_Gridlines
10
66.876096
20
112.029680
11
68.481475
21
111.933750
0
LINE
8
Y_Gridlines
10
68.481475
20
111.933750
11
70.090545
21
112.018968
0
LINE
8
Y_Gridlines
10
70.090545
20
112.018968
11
71.657818
21
112.281887
0
LINE
8
Y_Gridlines
10
71.657818
20
112.281887
11
73.137803
21
112.719057
0
LINE
8
Y_Gridlines
10
73.137803
20
112.719057
11
74.485012
21
113.327031
0
LINE
8
Y_Gridlines
10
74.485012
20
113.327031
11
75.653956
21
114.102361
0
LINE
8
Y_Gridlines
10
75.653956
20
114.102361
11
76.599145
21
115.041598
0
LINE
8
Y_Gridlines
10
76.599145
20
115.041598
11
77.275089
21
116.141293
0
LINE
8
Y_Gridlines
10
77.275089
20
116.141293
11
77.636300
21
117.398000
0
LINE
8
Y_Gridlines
10
77.636300
20
117.398000
11
77.722151
21
118.662913
0
LINE
8
Y_Gridlines
10
77.722151
20
118.662913
11
77.626473
21
119.798400
0
LINE
8
Y_Gridlines
10
77.626473
20
119.798400
11
77.035313
21
121.734328
0
LINE
8
Y_Gridlines
10
77.035313
20
121.734328
11
76.152383
21
123.312248
0
LINE
8
Y_Gridlines
10
76.152383
20
123.312248
11
75.267250
21
124.638625
0
LINE
8
Y_Gridlines
10
75.267250
20
124.638625
11
74.669480
21
125.819924
0
LINE
8
Y_Gridlines
10
74.669480
20
125.819924
11
74.568845
21
126.389439
0
LINE
8
Y_Gridlines
10
74.568845
20
126.389439
11
74.648638
21
126.962609
0
LINE
8
Y_Gridlines
10
74.648638
20
126.962609
11
74.945054
21
127.552742
0
LINE
8
Y_Gridlines
10
74.945054
20
127.552742
11
75.494289
21
128.173146
0
LINE
8
Y_Gridlines
10
75.494289
20
128.173146
11
77.496000
21
129.558000
0
LINE
8
Y_Gridlines
10
77.496000
20
129.558000
11
78.858028
21
130.107661
0
LINE
8
Y_Gridlines
10
78.858028
20
130.107661
11
80.264841
21
130.284738
0
LINE
8
Y_Gridlines
10
80.264841
20
130.284738
11
81.711925
21
130.142064
0
LINE
8
Y_Gridlines
10
81.711925
20
130.142064
11
83.194767
21
129.732469
0
LINE
8
Y_Gridlines
10
83.194767
20
129.732469
11
84.708853
21
129.108784
0
LINE
8
Y_Gridlines
10
84.708853
20
129.108784
11
86.249669
21
128.323840
0
LINE
8
Y_Gridlines
10
86.249669
20
128.323840
11
89.393437
21
126.481500
0
LINE
8
Y_Gridlines
10
89.393437
20
126.481500
11
92.589964
21
124.628098
0
LINE
8
Y_Gridlines
10
92.589964
20
124.628098
11
94.196727
21
123.829326
0
LINE
8
Y_Gridlines
10
94.196727
20
123.829326
11
95.803139
21
123.186281
0
LINE
8
Y_Gridlines
10
95.803139
20
123.186281
11
97.404686
21
122.751795
0
LINE
8
Y_Gridlines
10
97.404686
20
122.751795
11
98.996854
21
122.578699
0
LINE
8
Y_Gridlines
10
98.996854
20
122.578699
11
100.575130
21
122.719824
0
LINE
8
Y_Gridlines
10
100.575130
20
122.719824
11
102.135000
21
123.228000
0
LINE
8
Y_Gridlines
10
102.135000
20
123.228000
11
104.557488
21
124.514254
0
LINE
8
Y_Gridlines
10
104.557488
20
124.514254
11
105.313560
21
125.081011
0
LINE
8
Y_Gridlines
10
105.313560
20
125.081011
11
105.812344
21
125.616969
0
LINE
8
Y_Gridlines
10
105.812344
20
125.616969
11
106.088459
21
126.137211
0
LINE
8
Y_Gridlines
10
106.088459
20
126.137211
11
106.176527
21
126.656824
0
LINE
8
Y_Gridlines
10
106.176527
20
126.656824
11
105.927000
21
127.754500
0
LINE
8
Y_Gridlines
10
105.927000
20
127.754500
11
105.340723
21
129.030676
0
LINE
8
Y_Gridlines
10
105.340723
20
129.030676
11
104.694656
21
130.606031
0
LINE
8
Y_Gridlines
10
104.694656
20
130.606031
11
104.265762
21
132.601246
0
LINE
8
Y_Gridlines
10
104.265762
20
132.601246
11
104.219304
21
133.794013
0
LINE
8
Y_Gridlines
10
104.219304
20
133.794013
11
104.331000
21
135.137000
0
LINE
8
Y_Gridlines
10
104.331000
20
135.137000
11
104.680104
21
136.484101
0
LINE
8
Y_Gridlines
10
104.680104
20
136.484101
11
105.297064
21
137.677961
0
LINE
8
Y_Gridlines
10
105.297064
20
137.677961
11
106.143294
21
138.716231
0
LINE
8
Y_Gridlines
10
106.143294
20
138.716231
11
107.180203
21
139.596563
0
LINE
8
Y_Gridlines
10
107.180203
20
139.596563
11
108.369204
21
140.316604
0
LINE
8
Y_Gridlines
10
108.369204
20
140.316604
11
109.671709
21
140.874008
0
LINE
8
Y_Gridlines
10
109.671709
20
140.874008
11
111.049129
21
141.266423
0
LINE
8
Y_Gridlines
10
111.049129
20
141.266423
11
112.462875
21
141.491500
0
LINE
8
Y_Gridlines
10
112.462875
20
141.491500
11
113.874360
21
141.546890
0
LINE
8
Y_Gridlines
10
113.874360
20
141.546890
11
115.244994
21
141.430242
0
LINE
8
Y_Gridlines
10
115.244994
20
141.430242
11
116.536190
21
141.139208
0
LINE
8
Y_Gridlines
10
116.536190
20
141.139208
11
117.709359
21
140.671437
0
LINE
8
Y_Gridlines
10
117.709359
20
140.671437
11
118.725913
21
140.024581
0
LINE
8
Y_Gridlines
10
118.725913
20
140.024581
11
119.547264
21
139.196289
0
LINE
8
Y_Gridlines
10
119.547264
20
139.196289
11
120.134822
21
138.184212
0
LINE
8
Y_Gridlines
10
120.134822
20
138.184212
11
120.450000
21
136.986000
0
LINE
8
Y_Gridlines
10
120.450000
20
136.986000
11
120.534202
21
135.760900
0
LINE
8
Y_Gridlines
10
120.534202
20
135.760900
11
120.474488
21
134.661762
0
LINE
8
Y_Gridlines
10
120.474488
20
134.661762
11
120.042906
21
132.793594
0
LINE
8
Y_Gridlines
10
120.042906
20
132.793594
11
119.394434
21
131.285941
0
LINE
8
Y_Gridlines
10
119.394434
20
131.285941
11
118.768250
21
130.043250
0
LINE
8
Y_Gridlines
10
118.768250
20
130.043250
11
118.403535
21
128.969965
0
LINE
8
Y_Gridlines
10
118.403535
20
128.969965
11
118.393972
21
128.466989
0
LINE
8
Y_Gridlines
10
118.393972
20
128.466989
11
118.539469
21
127.970531
0
LINE
8
Y_Gridlines
10
118.539469
20
127.970531
11
118.869922
21
127.468648
0
LINE
8
Y_Gridlines
10
118.869922
20
127.468648
11
119.415230
21
126.949395
0
LINE
8
Y_Gridlines
10
119.415230
20
126.949395
11
121.270000
21
125.811000
0
LINE
8
Y_Gridlines
10
121.270000
20
125.811000
11
123.965295
21
124.709850
0
LINE
8
Y_Gridlines
10
123.965295
20
124.709850
11
127.121734
21
123.874234
0
LINE
8
Y_Gridlines
10
127.121734
20
123.874234
11
130.618275
21
123.318158
0
LINE
8
Y_Gridlines
10
130.618275
20
123.318158
11
134.333875
21
123.055625
0
LINE
8
Y_Gridlines
10
134.333875
20
123.055625
11
138.147490
21
123.100639
0
LINE
8
Y_Gridlines
10
138.147490
20
123.100639
11
141.938078
21
123.467203
0
LINE
8
Y_Gridlines
10
141.938078
20
123.467203
11
145.584596
21
124.169322
0
LINE
8
Y_Gridlines
10
145.584596
20
124.169322
11
148.966000
21
125.221000
0
LINE
8
Y_Gridlines
10
148.966000
20
125.221000
11
151.419119
21
126.265711
0
LINE
8
Y_Gridlines
10
151.419119
20
126.265711
11
152.566266
21
127.050125
0
LINE
8
Y_Gridlines
10
152.566266
20
127.050125
11
152.746094
21
127.397470
0
LINE
8
Y_Gridlines
10
152.746094
20
127.397470
11
152.714623
21
127.743039
0
LINE
8
Y_Gridlines
10
152.714623
20
127.743039
11
152.171375
21
128.513250
0
LINE
8
Y_Gridlines
10
152.171375
20
128.513250
11
151.243705
21
129.529555
0
LINE
8
Y_Gridlines
10
151.243705
20
129.529555
11
150.238797
21
130.960750
0
LINE
8
Y_Gridlines
10
150.238797
20
130.960750
11
149.803373
21
131.884681
0
LINE
8
Y_Gridlines
10
149.803373
20
131.884681
11
149.463834
21
132.975633
0
LINE
8
Y_Gridlines
10
149.463834
20
132.975633
11
149.258577
21
134.254706
0
LINE
8
Y_Gridlines
10
149.258577
20
134.254706
11
149.226000
21
135.743000
0
LINE
8
Y_Gridlines
10
149.226000
20
135.743000
11
149.473135
21
137.205971
0
LINE
8
Y_Gridlines
10
149.473135
20
137.205971
11
150.049816
21
138.403459
0
LINE
8
Y_Gridlines
10
150.049816
20
138.403459
11
150.909207
21
139.348135
0
LINE
8
Y_Gridlines
10
150.909207
20
139.348135
11
152.004469
21
140.052672
0
LINE
8
Y_Gridlines
10
152.004469
20
140.052672
11
153.288766
21
140.529742
0
LINE
8
Y_Gridlines
10
153.288766
20
140.529742
11
154.715262
21
140.792018
0
LINE
8
Y_Gridlines
10
154.715262
20
140.792018
11
156.237119
21
140.852171
0
LINE
8
Y_Gridlines
10
156.237119
20
140.852171
11
157.807500
21
140.722875
0
LINE
8
Y_Gridlines
10
157.807500
20
140.722875
11
159.379569
21
140.416802
0
LINE
8
Y_Gridlines
10
159.379569
20
140.416802
11
160.906488
21
139.946623
0
LINE
8
Y_Gridlines
10
160.906488
20
139.946623
11
162.341421
21
139.325012
0
LINE
8
Y_Gridlines
10
162.341421
20
139.325012
11
163.637531
21
138.564641
0
LINE
8
Y_Gridlines
10
163.637531
20
138.564641
11
164.747981
21
137.678181
0
LINE
8
Y_Gridlines
10
164.747981
20
137.678181
11
165.625934
21
136.678307
0
LINE
8
Y_Gridlines
10
165.625934
20
136.678307
11
166.224552
21
135.577689
0
LINE
8
Y_Gridlines
10
166.224552
20
135.577689
11
166.497000
21
134.389000
0
LINE
8
Y_Gridlines
10
166.497000
20
134.389000
11
166.484018
21
133.255346
0
LINE
8
Y_Gridlines
10
166.484018
20
133.255346
11
166.282986
21
132.297443
0
LINE
8
Y_Gridlines
10
166.282986
20
132.297443
11
165.932028
21
131.494377
0
LINE
8
Y_Gridlines
10
165.932028
20
131.494377
11
165.469266
21
130.825234
0
LINE
8
Y_Gridlines
10
165.469266
20
130.825234
11
164.360818
21
129.805064
0
LINE
8
Y_Gridlines
10
164.360818
20
129.805064
11
163.262625
21
129.069625
0
LINE
8
Y_Gridlines
10
163.262625
20
129.069625
11
162.479666
21
128.451607
0
LINE
8
Y_Gridlines
10
162.479666
20
128.451607
11
162.301706
21
128.134348
0
LINE
8
Y_Gridlines
10
162.301706
20
128.134348
11
162.316922
21
127.783703
0
LINE
8
Y_Gridlines
10
162.316922
20
127.783703
11
162.563437
21
127.378760
0
LINE
8
Y_Gridlines
10
162.563437
20
127.378760
11
163.079373
21
126.898604
0
LINE
8
Y_Gridlines
10
163.079373
20
126.898604
11
165.072000
21
125.629000
0
LINE
8
Y_Gridlines
10
165.072000
20
125.629000
11
166.472873
21
125.032733
0
LINE
8
Y_Gridlines
10
166.472873
20
125.032733
11
167.958717
21
124.733646
0
LINE
8
Y_Gridlines
10
167.958717
20
124.733646
11
169.518433
21
124.689311
0
LINE
8
Y_Gridlines
10
169.518433
20
124.689311
11
171.140922
21
124.857297
0
LINE
8
Y_Gridlines
10
171.140922
20
124.857297
11
174.529822
21
125.660518
0
LINE
8
Y_Gridlines
10
174.529822
20
125.660518
11
178.036625
21
126.803875
0
LINE
8
Y_Gridlines
10
178.036625
20
126.803875
11
181.572537
21
127.947936
0
LINE
8
Y_Gridlines
10
181.572537
20
127.947936
11
185.048766
21
128.753266
0
LINE
8
Y_Gridlines
10
185.048766
20
128.753266
11
186.736751
21
128.922834
0
LINE
8
Y_Gridlines
10
186.736751
20
128.922834
11
188.376518
21
128.880432
0
LINE
8
Y_Gridlines
10
188.376518
20
128.880432
11
189.956967
21
128.583630
0
LINE
8
Y_Gridlines
10
189.956967
20
128.583630
11
191.467000
21
127.990000
0
LINE
8
Y_Gridlines
10
191.467000
20
127.990000
11
193.795834
21
126.759266
0
LINE
8
Y_Gridlines
10
193.795834
20
126.759266
11
195.060172
21
125.952375
0
LINE
8
Y_Gridlines
10
195.060172
20
125.952375
11
195.502393
21
125.360172
0
LINE
8
Y_Gridlines
10
195.502393
20
125.360172
11
195.364875
21
124.773500
0
LINE
8
Y_Gridlines
10
195.364875
20
124.773500
11
194.889998
21
123.983203
0
LINE
8
Y_Gridlines
10
194.889998
20
123.983203
11
194.320141
21
122.780125
0
LINE
8
Y_Gridlines
10
194.320141
20
122.780125
11
193.897682
21
120.955109
0
LINE
8
Y_Gridlines
10
193.897682
20
120.955109
11
193.865000
21
118.299000
0
LINE
8
Y_Gridlines
10
193.865000
20
118.299000
11
194.155174
21
116.815323
0
LINE
8
Y_Gridlines
10
194.155174
20
116.815323
11
194.753795
21
115.506596
0
LINE
8
Y_Gridlines
10
194.753795
20
115.506596
11
195.617515
21
114.374216
0
LINE
8
Y_Gridlines
10
195.617515
20
114.374216
11
196.702984
21
113.419578
0
LINE
8
Y_Gridlines
10
196.702984
20
113.419578
11
197.966854
21
112.644079
0
LINE
8
Y_Gridlines
10
197.966854
20
112.644079
11
199.365775
21
112.049115
0
LINE
8
Y_Gridlines
10
199.365775
20
112.049115
11
200.856399
21
111.636082
0
LINE
8
Y_Gridlines
10
200.856399
20
111.636082
11
202.395375
21
111.406375
0
LINE
8
Y_Gridlines
10
202.395375
20
111.406375
11
203.939355
21
111.361391
0
LINE
8
Y_Gridlines
10
203.939355
20
111.361391
11
205.444990
21
111.502525
0
LINE
8
Y_Gridlines
10
205.444990
20
111.502525
11
206.868931
21
111.831175
0
LINE
8
Y_Gridlines
10
206.868931
20
111.831175
11
208.167828
21
112.348734
0
LINE
8
Y_Gridlines
10
208.167828
20
112.348734
11
209.298333
21
113.056601
0
LINE
8
Y_Gridlines
10
209.298333
20
113.056601
11
210.217096
21
113.956170
0
LINE
8
Y_Gridlines
10
210.217096
20
113.956170
11
210.880768
21
115.048838
0
LINE
8
Y_Gridlines
10
210.880768
20
115.048838
11
211.246000
21
116.336000
0
LINE
8
Y_Gridlines
10
211.246000
20
116.336000
11
211.321752
21
117.648343
0
LINE
8
Y_Gridlines
10
211.321752
20
117.648343
11
211.174250
21
118.824793
0
LINE
8
Y_Gridlines
10
211.174250
20
118.824793
11
210.845482
21
119.879104
0
LINE
8
Y_Gridlines
10
210.845482
20
119.879104
11
210.377438
21
120.825031
0
LINE
8
Y_Gridlines
10
210.377438
20
120.825031
11
209.191469
21
122.446754
0
LINE
8
Y_Gridlines
10
209.191469
20
122.446754
11
207.952250
21
123.800000
0
LINE
8
Y_Gridlines
10
207.952250
20
123.800000
11
206.995688
21
124.994809
0
LINE
8
Y_Gridlines
10
206.995688
20
124.994809
11
206.728373
21
125.567186
0
LINE
8
Y_Gridlines
10
206.728373
20
125.567186
11
206.657688
21
126.141219
0
LINE
8
Y_Gridlines
10
206.657688
20
126.141219
11
206.825619
21
126.730662
0
LINE
8
Y_Gridlines
10
206.825619
20
126.730662
11
207.274156
21
127.349270
0
LINE
8
Y_Gridlines
10
207.274156
20
127.349270
11
208.045287
21
128.010797
0
LINE
8
Y_Gridlines
10
208.045287
20
128.010797
11
209.181000
21
128.729000
0
LINE
8
Y_Gridlines
10
209.181000
20
128.729000
11
210.518127
21
129.365929
0
LINE
8
Y_Gridlines
10
210.518127
20
129.365929
11
211.857379
21
129.789900
0
LINE
8
Y_Gridlines
10
211.857379
20
129.789900
11
213.186558
21
130.024629
0
LINE
8
Y_Gridlines
10
213.186558
20
130.024629
11
214.493469
21
130.093828
0
LINE
8
Y_Gridlines
10
214.493469
20
130.093828
11
216.991699
21
129.830498
0
LINE
8
Y_Gridlines
10
216.991699
20
129.830498
11
219.254500
21
129.189625
0
LINE
8
Y_Gridlines
10
219.254500
20
129.189625
11
221.184301
21
128.360924
0
LINE
8
Y_Gridlines
10
221.184301
20
128.360924
11
222.683531
21
127.534109
0
LINE
8
Y_Gridlines
10
222.683531
20
127.534109
11
224.000000
21
126.645000
0
LINE
8
Y_Gridlines
10
0.000000
20
63.285200
11
0.670777
21
64.135652
0
LINE
8
Y_Gridlines
10
0.670777
20
64.135652
11
1.537742
21
64.935032
0
LINE
8
Y_Gridlines
10
1.537742
20
64.935032
11
2.784421
21
65.749462
0
LINE
8
Y_Gridlines
10
2.784421
20
65.749462
11
4.429810
21
66.403154
0
LINE
8
Y_Gridlines
10
4.429810
20
66.403154
11
6.492905
21
66.720317
0
LINE
8
Y_Gridlines
10
6.492905
20
66.720317
11
8.992703
21
66.525162
0
LINE
8
Y_Gridlines
10
8.992703
20
66.525162
11
10.412302
21
66.180531
0
LINE
8
Y_Gridlines
10
10.412302
20
66.180531
11
11.948200
21
65.641900
0
LINE
8
Y_Gridlines
10
11.948200
20
65.641900
11
14.470058
21
64.473471
0
LINE
8
Y_Gridlines
10
14.470058
20
64.473471
11
15.834637
21
63.458041
0
LINE
8
Y_Gridlines
10
15.834637
20
63.458041
11
16.166588
21
62.969276
0
LINE
8
Y_Gridlines
10
16.166588
20
62.969276
11
16.309586
21
62.472652
0
LINE
8
Y_Gridlines
10
16.309586
20
62.472652
11
16.162550
21
61.394350
0
LINE
8
Y_Gridlines
10
16.162550
20
61.394350
11
15.073112
21
58.467184
0
LINE
8
Y_Gridlines
10
15.073112
20
58.467184
11
14.666005
21
56.372410
0
LINE
8
Y_Gridlines
10
14.666005
20
56.372410
11
14.613949
21
55.113431
0
LINE
8
Y_Gridlines
10
14.613949
20
55.113431
11
14.707500
21
53.692900
0
LINE
8
Y_Gridlines
10
14.707500
20
53.692900
11
15.056982
21
52.293792
0
LINE
8
Y_Gridlines
10
15.056982
20
52.293792
11
15.720371
21
51.105708
0
LINE
8
Y_Gridlines
10
15.720371
20
51.105708
11
16.652545
21
50.123273
0
LINE
8
Y_Gridlines
10
16.652545
20
50.123273
11
17.808381
21
49.341111
0
LINE
8
Y_Gridlines
10
17.808381
20
49.341111
11
19.142757
21
48.753845
0
LINE
8
Y_Gridlines
10
19.142757
20
48.753845
11
20.610551
21
48.356099
0
LINE
8
Y_Gridlines
10
20.610551
20
48.356099
11
22.166639
21
48.142497
0
LINE
8
Y_Gridlines
10
22.166639
20
48.142497
11
23.765900
21
48.107663
0
LINE
8
Y_Gridlines
10
23.765900
20
48.107663
11
25.363211
21
48.246220
0
LINE
8
Y_Gridlines
10
25.363211
20
48.246220
11
26.913449
21
48.552794
0
LINE
8
Y_Gridlines
10
26.913449
20
48.552794
11
28.371493
21
49.022006
0
LINE
8
Y_Gridlines
10
28.371493
20
49.022006
11
29.692219
21
49.648483
0
LINE
8
Y_Gridlines
10
29.692219
20
49.648483
11
30.830505
21
50.426846
0
LINE
8
Y_Gridlines
10
30.830505
20
50.426846
11
31.741229
21
51.351721
0
LINE
8
Y_Gridlines
10
31.741229
20
51.351721
11
32.379268
21
52.417731
0
LINE
8
Y_Gridlines
10
32.379268
20
52.417731
11
32.699500
21
53.619500
0
LINE
8
Y_Gridlines
10
32.699500
20
53.619500
11
32.749402
21
54.814824
0
LINE
8
Y_Gridlines
10
32.749402
20
54.814824
11
32.629740
21
55.874839
0
LINE
8
Y_Gridlines
10
32.629740
20
55.874839
11
32.020723
21
57.647709
0
LINE
8
Y_Gridlines
10
32.020723
20
57.647709
11
31.150461
21
59.055644
0
LINE
8
Y_Gridlines
10
31.150461
20
59.055644
11
30.296962
21
60.216175
0
LINE
8
Y_Gridlines
10
30.296962
20
60.216175
11
29.738237
21
61.246834
0
LINE
8
Y_Gridlines
10
29.738237
20
61.246834
11
29.656293
21
61.750190
0
LINE
8
Y_Gridlines
10
29.656293
20
61.750190
11
29.752295
21
62.265153
0
LINE
8
Y_Gridlines
10
29.752295
20
62.265153
11
30.060996
21
62.806414
0
LINE
8
Y_Gridlines
10
30.060996
20
62.806414
11
30.617146
21
63.388664
0
LINE
8
Y_Gridlines
10
30.617146
20
63.388664
11
32.610800
21
64.734900
0
LINE
8
Y_Gridlines
10
32.610800
20
64.734900
11
35.466189
21
66.055998
0
LINE
8
Y_Gridlines
10
35.466189
20
66.055998
11
38.665144
21
67.022187
0
LINE
8
Y_Gridlines
10
38.665144
20
67.022187
11
42.109020
21
67.628133
0
LINE
8
Y_Gridlines
10
42.109020
20
67.628133
11
45.699175
21
67.868500
0
LINE
8
Y_Gridlines
10
45.699175
20
67.868500
11
49.336964
21
67.737955
0
LINE
8
Y_Gridlines
10
49.336964
20
67.737955
11
52.923744
21
67.231162
0
LINE
8
Y_Gridlines
10
52.923744
20
67.231162
11
56.360870
21
66.342789
0
LINE
8
Y_Gridlines
10
56.360870
20
66.342789
11
59.549700
21
65.067500
0
LINE
8
Y_Gridlines
10
59.549700
20
65.067500
11
61.815106
21
63.835896
0
LINE
8
Y_Gridlines
10
61.815106
20
63.835896
11
62.766603
21
62.962823
0
LINE
8
Y_Gridlines
10
62.766603
20
62.962823
11
62.852201
21
62.604810
0
LINE
8
Y_Gridlines
10
62.852201
20
62.604810
11
62.732399
21
62.269317
0
LINE
8
Y_Gridlines
10
62.732399
20
62.269317
11
62.040700
21
61.576412
0
LINE
8
Y_Gridlines
10
62.040700
20
61.576412
11
61.019714
21
60.705144
0
LINE
8
Y_Gridlines
10
61.019714
20
60.705144
11
59.997647
21
59.476545
0
LINE
8
Y_Gridlines
10
59.997647
20
59.476545
11
59.588773
21
58.672321
0
LINE
8
Y_Gridlines
10
59.588773
20
58.672321
11
59.302707
21
57.711653
0
LINE
8
Y_Gridlines
10
59.302707
20
57.711653
11
59.180474
21
56.572169
0
LINE
8
Y_Gridlines
10
59.180474
20
56.572169
11
59.263100
21
55.231500
0
LINE
8
Y_Gridlines
10
59.263100
20
55.231500
11
59.619451
21
53.858276
0
LINE
8
Y_Gridlines
10
59.619451
20
53.858276
11
60.263178
21
52.637559
0
LINE
8
Y_Gridlines
10
60.263178
20
52.637559
11
61.152545
21
51.571626
0
LINE
8
Y_Gridlines
10
61.152545
20
51.571626
11
62.245814
21
50.662756
0
LINE
8
Y_Gridlines
10
62.245814
20
50.662756
11
63.501248
21
49.913226
0
LINE
8
Y_Gridlines
10
63.501248
20
49.913226
11
64.877108
21
49.325313
0
LINE
8
Y_Gridlines
10
64.877108
20
49.325313
11
66.331659
21
48.901295
0
LINE
8
Y_Gridlines
10
66.331659
20
48.901295
11
67.823162
21
48.643450
0
LINE
8
Y_Gridlines
10
67.823162
20
48.643450
11
69.309881
21
48.554055
0
LINE
8
Y_Gridlines
10
69.309881
20
48.554055
11
70.750078
21
48.635387
0
LINE
8
Y_Gridlines
10
70.750078
20
48.635387
11
72.102015
21
48.889724
0
LINE
8
Y_Gridlines
10
72.102015
20
48.889724
11
73.323955
21
49.319344
0
LINE
8
Y_Gridlines
10
73.323955
20
49.319344
11
74.374161
21
49.926524
0
LINE
8
Y_Gridlines
10
74.374161
20
49.926524
11
75.210895
21
50.713541
0
LINE
8
Y_Gridlines
10
75.210895
20
50.713541
11
75.792421
21
51.682674
0
LINE
8
Y_Gridlines
10
75.792421
20
51.682674
11
76.077000
21
52.836200
0
LINE
8
Y_Gridlines
10
76.077000
20
52.836200
11
76.111225
21
54.016219
0
LINE
8
Y_Gridlines
10
76.111225
20
54.016219
11
75.991080
21
55.071990
0
LINE
8
Y_Gridlines
10
75.991080
20
55.071990
11
75.417073
21
56.862861
0
LINE
8
Y_Gridlines
10
75.417073
20
56.862861
11
74.613771
21
58.312948
0
LINE
8
Y_Gridlines
10
74.613771
20
58.312948
11
73.839963
21
59.526387
0
LINE
8
Y_Gridlines
10
73.839963
20
59.526387
11
73.354440
21
60.607316
0
LINE
8
Y_Gridlines
10
73.354440
20
60.607316
11
73.300659
21
61.130632
0
LINE
8
Y_Gridlines
10
73.300659
20
61.130632
11
73.415995
21
61.659870
0
LINE
8
Y_Gridlines
10
73.415995
20
61.659870
11
73.732799
21
62.208049
0
LINE
8
Y_Gridlines
10
73.732799
20
62.208049
11
74.283418
21
62.788186
0
LINE
8
Y_Gridlines
10
74.283418
20
62.788186
11
76.215500
21
64.096400
0
LINE
8
Y_Gridlines
10
76.215500
20
64.096400
11
77.559012
21
64.644321
0
LINE
8
Y_Gridlines
10
77.559012
20
64.644321
11
79.028684
21
64.884309
0
LINE
8
Y_Gridlines
10
79.028684
20
64.884309
11
80.609172
21
64.860011
0
LINE
8
Y_Gridlines
10
80.609172
20
64.860011
11
82.285134
21
64.615075
0
LINE
8
Y_Gridlines
10
82.285134
20
64.615075
11
85.862111
21
63.637878
0
LINE
8
Y_Gridlines
10
85.862111
20
63.637878
11
89.636875
21
62.301900
0
LINE
8
Y_Gridlines
10
89.636875
20
62.301900
11
93.486686
21
60.956322
0
LINE
8
Y_Gridlines
10
93.486686
20
60.956322
11
97.288803
21
59.950325
0
LINE
8
Y_Gridlines
10
97.288803
20
59.950325
11
99.133621
21
59.683789
0
LINE
8
Y_Gridlines
10
99.133621
20
59.683789
11
100.920488
21
59.633091
0
LINE
8
Y_Gridlines
10
100.920488
20
59.633091
11
102.634062
21
59.841879
0
LINE
8
Y_Gridlines
10
102.634062
20
59.841879
11
104.259000
21
60.353800
0
LINE
8
Y_Gridlines
10
104.259000
20
60.353800
11
105.625888
21
61.006474
0
LINE
8
Y_Gridlines
10
105.625888
20
61.006474
11
106.603559
21
61.617828
0
LINE
8
Y_Gridlines
10
106.603559
20
61.617828
11
107.234208
21
62.201969
0
LINE
8
Y_Gridlines
10
107.234208
20
62.201969
11
107.560031
21
62.773008
0
LINE
8
Y_Gridlines
10
107.560031
20
62.773008
11
107.623226
21
63.345053
0
LINE
8
Y_Gridlines
10
107.623226
20
63.345053
11
107.465988
21
63.932212
0
LINE
8
Y_Gridlines
10
107.465988
20
63.932212
11
106.659000
21
65.208312
0
LINE
8
Y_Gridlines
10
106.659000
20
65.208312
11
105.476637
21
66.714180
0
LINE
8
Y_Gridlines
10
105.476637
20
66.714180
11
104.256469
21
68.562686
0
LINE
8
Y_Gridlines
10
104.256469
20
68.562686
11
103.737699
21
69.650701
0
LINE
8
Y_Gridlines
10
103.737699
20
69.650701
11
103.336066
21
70.866702
0
LINE
8
Y_Gridlines
10
103.336066
20
70.866702
11
103.093768
21
72.224799
0
LINE
8
Y_Gridlines
10
103.093768
20
72.224799
11
103.053000
21
73.739100
0
LINE
8
Y_Gridlines
10
103.053000
20
73.739100
11
103.293016
21
75.211866
0
LINE
8
Y_Gridlines
10
103.293016
20
75.211866
11
103.836408
21
76.441474
0
LINE
8
Y_Gridlines
10
103.836408
20
76.441474
11
104.640944
21
77.436208
0
LINE
8
Y_Gridlines
10
104.640944
20
77.436208
11
105.664391
21
78.204353
0
LINE
8
Y_Gridlines
10
105.664391
20
78.204353
11
106.864515
21
78.754193
0
LINE
8
Y_Gridlines
10
106.864515
20
78.754193
11
108.199084
21
79.094012
0
LINE
8
Y_Gridlines
10
108.199084
20
79.094012
11
109.625865
21
79.232095
0
LINE
8
Y_Gridlines
10
109.625865
20
79.232095
11
111.102625
21
79.176725
0
LINE
8
Y_Gridlines
10
111.102625
20
79.176725
11
112.587131
21
78.936187
0
LINE
8
Y_Gridlines
10
112.587131
20
78.936187
11
114.037150
21
78.518766
0
LINE
8
Y_Gridlines
10
114.037150
20
78.518766
11
115.410450
21
77.932745
0
LINE
8
Y_Gridlines
10
115.410450
20
77.932745
11
116.664797
21
77.186409
0
LINE
8
Y_Gridlines
10
116.664797
20
77.186409
11
117.757958
21
76.288043
0
LINE
8
Y_Gridlines
10
117.757958
20
76.288043
11
118.647701
21
75.245929
0
LINE
8
Y_Gridlines
10
118.647701
20
75.245929
11
119.291793
21
74.068354
0
LINE
8
Y_Gridlines
10
119.291793
20
74.068354
11
119.648000
21
72.763600
0
LINE
8
Y_Gridlines
10
119.648000
20
72.763600
11
119.756341
21
71.458474
0
LINE
8
Y_Gridlines
10
119.756341
20
71.458474
11
119.706412
21
70.267323
0
LINE
8
Y_Gridlines
10
119.706412
20
70.267323
11
119.260297
21
68.185337
0
LINE
8
Y_Gridlines
10
119.260297
20
68.185337
11
118.566752
21
66.434420
0
LINE
8
Y_Gridlines
10
118.566752
20
66.434420
11
117.882875
21
64.931350
0
LINE
8
Y_Gridlines
10
117.882875
20
64.931350
11
117.465764
21
63.592905
0
LINE
8
Y_Gridlines
10
117.465764
20
63.592905
11
117.437588
21
62.959410
0
LINE
8
Y_Gridlines
10
117.437588
20
62.959410
11
117.572516
21
62.335863
0
LINE
8
Y_Gridlines
10
117.572516
20
62.335863
11
117.902683
21
61.711861
0
LINE
8
Y_Gridlines
10
117.902683
20
61.711861
11
118.460229
21
61.077002
0
LINE
8
Y_Gridlines
10
118.460229
20
61.077002
11
120.386000
21
59.733100
0
LINE
8
Y_Gridlines
10
120.386000
20
59.733100
11
121.715626
21
59.104486
0
LINE
8
Y_Gridlines
10
121.715626
20
59.104486
11
123.164604
21
58.626487
0
LINE
8
Y_Gridlines
10
123.164604
20
58.626487
11
126.364203
21
58.084437
0
LINE
8
Y_Gridlines
10
126.364203
20
58.084437
11
129.871982
21
58.031144
0
LINE
8
Y_Gridlines
10
129.871982
20
58.031144
11
133.575125
21
58.390800
0
LINE
8
Y_Gridlines
10
133.575125
20
58.390800
11
137.360814
21
59.087600
0
LINE
8
Y_Gridlines
10
137.360814
20
59.087600
11
141.116234
21
60.045738
0
LINE
8
Y_Gridlines
10
141.116234
20
60.045738
11
144.728568
21
61.189406
0
LINE
8
Y_Gridlines
10
144.728568
20
61.189406
11
148.085000
21
62.442800
0
LINE
8
Y_Gridlines
10
148.085000
20
62.442800
11
150.460770
21
63.476467
0
LINE
8
Y_Gridlines
10
150.460770
20
63.476467
11
151.439406
21
64.137558
0
LINE
8
Y_Gridlines
10
151.439406
20
64.137558
11
151.514055
21
64.387516
0
LINE
8
Y_Gridlines
10
151.514055
20
64.387516
11
151.370527
21
64.615286
0
LINE
8
Y_Gridlines
10
151.370527
20
64.615286
11
150.603750
21
65.098862
0
LINE
8
Y_Gridlines
10
150.603750
20
65.098862
11
149.488691
21
65.777500
0
LINE
8
Y_Gridlines
10
149.488691
20
65.777500
11
148.374969
21
66.840411
0
LINE
8
Y_Gridlines
10
148.374969
20
66.840411
11
147.927864
21
67.575097
0
LINE
8
Y_Gridlines
10
147.927864
20
67.575097
11
147.612199
21
68.476807
0
LINE
8
Y_Gridlines
10
147.612199
20
68.476807
11
147.471677
21
69.569191
0
LINE
8
Y_Gridlines
10
147.471677
20
69.569191
11
147.550000
21
70.875900
0
LINE
8
Y_Gridlines
10
147.550000
20
70.875900
11
147.930842
21
72.195987
0
LINE
8
Y_Gridlines
10
147.930842
20
72.195987
11
148.636658
21
73.316138
0
LINE
8
Y_Gridlines
10
148.636658
20
73.316138
11
149.619321
21
74.241453
0
LINE
8
Y_Gridlines
10
149.619321
20
74.241453
11
150.830703
21
74.977034
0
LINE
8
Y_Gridlines
10
150.830703
20
74.977034
11
152.222677
21
75.527983
0
LINE
8
Y_Gridlines
10
152.222677
20
75.527983
11
153.747115
21
75.899401
0
LINE
8
Y_Gridlines
10
153.747115
20
75.899401
11
155.355890
21
76.096390
0
LINE
8
Y_Gridlines
10
155.355890
20
76.096390
11
157.000875
21
76.124050
0
LINE
8
Y_Gridlines
10
157.000875
20
76.124050
11
158.633942
21
75.987484
0
LINE
8
Y_Gridlines
10
158.633942
20
75.987484
11
160.206963
21
75.691793
0
LINE
8
Y_Gridlines
10
160.206963
20
75.691793
11
161.671811
21
75.242078
0
LINE
8
Y_Gridlines
10
161.671811
20
75.242078
11
162.980359
21
74.643441
0
LINE
8
Y_Gridlines
10
162.980359
20
74.643441
11
164.084480
21
73.900983
0
LINE
8
Y_Gridlines
10
164.084480
20
73.900983
11
164.936045
21
73.019806
0
LINE
8
Y_Gridlines
10
164.936045
20
73.019806
11
165.486927
21
72.005011
0
LINE
8
Y_Gridlines
10
165.486927
20
72.005011
11
165.689000
21
70.861700
0
LINE
8
Y_Gridlines
10
165.689000
20
70.861700
11
165.616260
21
69.751674
0
LINE
8
Y_Gridlines
10
165.616260
20
69.751674
11
165.396816
21
68.819048
0
LINE
8
Y_Gridlines
10
165.396816
20
68.819048
11
164.649969
21
67.400498
0
LINE
8
Y_Gridlines
10
164.649969
20
67.400498
11
163.712762
21
66.435059
0
LINE
8
Y_Gridlines
10
163.712762
20
66.435059
11
162.849500
21
65.751737
0
LINE
8
Y_Gridlines
10
162.849500
20
65.751737
11
162.324488
21
65.179543
0
LINE
8
Y_Gridlines
10
162.324488
20
65.179543
11
162.271421
21
64.881683
0
LINE
8
Y_Gridlines
10
162.271421
20
64.881683
11
162.402031
21
64.547483
0
LINE
8
Y_Gridlines
10
162.402031
20
64.547483
11
163.346434
21
63.684566
0
LINE
8
Y_Gridlines
10
163.346434
20
63.684566
11
165.422000
21
62.419800
0
LINE
8
Y_Gridlines
10
165.422000
20
62.419800
11
168.318877
21
60.980751
0
LINE
8
Y_Gridlines
10
168.318877
20
60.980751
11
171.495141
21
59.747655
0
LINE
8
Y_Gridlines
10
171.495141
20
59.747655
11
174.865865
21
58.778528
0
LINE
8
Y_Gridlines
10
174.865865
20
58.778528
11
178.346125
21
58.131388
0
LINE
8
Y_Gridlines
10
178.346125
20
58.131388
11
181.850994
21
57.864248
0
LINE
8
Y_Gridlines
10
181.850994
20
57.864248
11
185.295547
21
58.035127
0
LINE
8
Y_Gridlines
10
185.295547
20
58.035127
11
188.594857
21
58.702038
0
LINE
8
Y_Gridlines
10
188.594857
20
58.702038
11
190.163508
21
59.239637
0
LINE
8
Y_Gridlines
10
190.163508
20
59.239637
11
191.664000
21
59.923000
0
LINE
8
Y_Gridlines
10
191.664000
20
59.923000
11
193.863145
21
61.247860
0
LINE
8
Y_Gridlines
10
193.863145
20
61.247860
11
194.475880
21
61.794592
0
LINE
8
Y_Gridlines
10
194.475880
20
61.794592
11
194.815719
21
62.289658
0
LINE
8
Y_Gridlines
10
194.815719
20
62.289658
11
194.921405
21
62.752158
0
LINE
8
Y_Gridlines
10
194.921405
20
62.752158
11
194.831684
21
63.201192
0
LINE
8
Y_Gridlines
10
194.831684
20
63.201192
11
194.221000
21
64.135263
0
LINE
8
Y_Gridlines
10
194.221000
20
64.135263
11
193.293629
21
65.244669
0
LINE
8
Y_Gridlines
10
193.293629
20
65.244669
11
192.359531
21
66.682211
0
LINE
8
Y_Gridlines
10
192.359531
20
66.682211
11
191.986823
21
67.571783
0
LINE
8
Y_Gridlines
10
191.986823
20
67.571783
11
191.728668
21
68.600688
0
LINE
8
Y_Gridlines
10
191.728668
20
68.600688
11
191.623812
21
69.788027
0
LINE
8
Y_Gridlines
10
191.623812
20
69.788027
11
191.711000
21
71.152900
0
LINE
8
Y_Gridlines
10
191.711000
20
71.152900
11
192.103151
21
72.527601
0
LINE
8
Y_Gridlines
10
192.103151
20
72.527601
11
192.853254
21
73.731744
0
LINE
8
Y_Gridlines
10
192.853254
20
73.731744
11
193.909597
21
74.765463
0
LINE
8
Y_Gridlines
10
193.909597
20
74.765463
11
195.220469
21
75.628894
0
LINE
8
Y_Gridlines
10
195.220469
20
75.628894
11
196.734157
21
76.322171
0
LINE
8
Y_Gridlines
10
196.734157
20
76.322171
11
198.398949
21
76.845428
0
LINE
8
Y_Gridlines
10
198.398949
20
76.845428
11
200.163134
21
77.198801
0
LINE
8
Y_Gridlines
10
200.163134
20
77.198801
11
201.975000
21
77.382425
0
LINE
8
Y_Gridlines
10
201.975000
20
77.382425
11
203.782834
21
77.396434
0
LINE
8
Y_Gridlines
10
203.782834
20
77.396434
11
205.534926
21
77.240962
0
LINE
8
Y_Gridlines
10
205.534926
20
77.240962
11
207.179562
21
76.916146
0
LINE
8
Y_Gridlines
10
207.179562
20
76.916146
11
208.665031
21
76.422119
0
LINE
8
Y_Gridlines
10
208.665031
20
76.422119
11
209.939622
21
75.759016
0
LINE
8
Y_Gridlines
10
209.939622
20
75.759016
11
210.951621
21
74.926972
0
LINE
8
Y_Gridlines
10
210.951621
20
74.926972
11
211.649318
21
73.926122
0
LINE
8
Y_Gridlines
10
211.649318
20
73.926122
11
211.981000
21
72.756600
0
LINE
8
Y_Gridlines
10
211.981000
20
72.756600
11
211.994058
21
71.555130
0
LINE
8
Y_Gridlines
10
211.994058
20
71.555130
11
211.797273
21
70.452407
0
LINE
8
Y_Gridlines
10
211.797273
20
70.452407
11
211.430462
21
69.439578
0
LINE
8
Y_Gridlines
10
211.430462
20
69.439578
11
210.933438
21
68.507789
0
LINE
8
Y_Gridlines
10
210.933438
20
68.507789
11
209.708008
21
66.851923
0
LINE
8
Y_Gridlines
10
209.708008
20
66.851923
11
208.439500
21
65.413987
0
LINE
8
Y_Gridlines
10
208.439500
20
65.413987
11
207.446430
21
64.123160
0
LINE
8
Y_Gridlines
10
207.446430
20
64.123160
11
207.152720
21
63.510779
0
LINE
8
Y_Gridlines
10
207.152720
20
63.510779
11
207.047313
21
62.908617
0
LINE
8
Y_Gridlines
10
207.047313
20
62.908617
11
207.170022
21
62.307821
0
LINE
8
Y_Gridlines
10
207.170022
20
62.307821
11
207.560664
21
61.699538
0
LINE
8
Y_Gridlines
10
207.560664
20
61.699538
11
208.259052
21
61.074915
0
LINE
8
Y_Gridlines
10
208.259052
20
61.074915
11
209.305000
21
60.425100
0
LINE
8
Y_Gridlines
10
209.305000
20
60.425100
11
210.553723
21
59.872445
0
LINE
8
Y_Gridlines
10
210.553723
20
59.872445
11
211.824457
21
59.529187
0
LINE
8
Y_Gridlines
10
211.824457
20
59.529187
11
213.103048
21
59.371352
0
LINE
8
Y_Gridlines
10
213.103048
20
59.371352
11
214.375344
21
59.374967
0
LINE
8
Y_Gridlines
10
214.375344
20
59.374967
11
216.844434
21
59.770654
0
LINE
8
Y_Gridlines
10
216.844434
20
59.770654
11
219.118500
21
60.524462
0
LINE
8
Y_Gridlines
10
219.118500
20
60.524462
11
221.084316
21
61.444607
0
LINE
8
Y_Gridlines
10
221.084316
20
61.444607
11
222.628656
21
62.339302
0
LINE
8
Y_Gridlines
10
222.628656
20
62.339302
11
224.000000
21
63.285200
0
LINE
8
Jigsaw:X5:Y5
10
0.000000
20
315.314000
11
0.121267
21
315.832142
0
LINE
8
Jigsaw:X5:Y5
10
0.121267
20
315.832142
11
0.440972
21
316.284138
0
LINE
8
Jigsaw:X5:Y5
10
0.440972
20
316.284138
11
0.892968
21
316.603843
0
LINE
8
Jigsaw:X5:Y5
10
0.892968
20
316.603843
11
1.411110
21
316.725110
0
LINE
8
Jigsaw:X5:Y5
10
1.411110
20
316.725110
11
222.589110
21
316.725110
0
LINE
8
Jigsaw:X5:Y5
10
222.589110
20
316.725110
11
223.107252
21
316.603843
0
LINE
8
Jigsaw:X5:Y5
10
223.107252
20
316.603843
11
223.559248
21
316.284138
0
LINE
8
Jigsaw:X5:Y5
10
223.559248
20
316.284138
11
223.878953
21
315.832142
0
LINE
8
Jigsaw:X5:Y5
10
223.878953
20
315.832142
11
224.000220
21
315.314000
0
LINE
8
Jigsaw:X5:Y5
10
224.000220
20
315.314000
11
224.000220
21
1.336000
0
LINE
8
Jigsaw:X5:Y5
10
224.000220
20
1.336000
11
223.878953
21
0.817858
0
LINE
8
Jigsaw:X5:Y5
10
223.878953
20
0.817858
11
223.559248
21
0.365862
0
LINE
8
Jigsaw:X5:Y5
10
223.559248
20
0.365862
11
223.107252
21
0.046157
0
LINE
8
Jigsaw:X5:Y5
10
223.107252
20
0.046157
11
222.589110
21
-0.075110
0
LINE
8
Jigsaw:X5:Y5
10
222.589110
20
-0.075110
11
1.411110
21
-0.075110
0
LINE
8
Jigsaw:X5:Y5
10
1.411110
20
-0.075110
11
0.892968
21
0.046157
0
LINE
8
Jigsaw:X5:Y5
10
0.892968
20
0.046157
11
0.440972
21
0.365862
0
LINE
8
Jigsaw:X5:Y5
10
0.440972
20
0.365862
11
0.121267
21
0.817858
0
LINE
8
Jigsaw:X5:Y5
10
0.121267
20
0.817858
11
0.000000
21
1.336000
0
LINE
8
Jigsaw:X5:Y5
10
0.000000
20
1.336000
11
0.000000
21
315.314000
 0 
ENDSEC
 0 
EOF