999
"DXF R12 Output" (www.mydxf.blogspot.com)
 0 
SECTION
 2 
HEADER
 9 
$ACADVER
 1 
AC1009
 9 
$EXTMIN
 10 
 0 
 20 
 0 
 9 
$EXTMAX
 10 
 8.5 
 20 
 11 
 0 
ENDSEC
 0 
SECTION
 2 
ENTITIES
0
LINE
8
Calque 1
10
2.812490
20
149.063000
11
12.234350
21
149.063000
0
LINE
8
Calque 1
10
12.234350
20
149.063000
11
12.234350
21
146.250500
0
LINE
8
Calque 1
10
12.234350
20
146.250500
11
21.515590
21
146.250500
0
LINE
8
Calque 1
10
21.515590
20
146.250500
11
21.515590
21
149.063000
0
LINE
8
Calque 1
10
21.515590
20
149.063000
11
30.984330
21
149.063000
0
LINE
8
Calque 1
10
30.984330
20
149.063000
11
30.984330
21
146.250500
0
LINE
8
Calque 1
10
30.984330
20
146.250500
11
40.265570
21
146.250500
0
LINE
8
Calque 1
10
40.265570
20
146.250500
11
40.265570
21
149.063000
0
LINE
8
Calque 1
10
40.265570
20
149.063000
11
49.687430
21
149.063000
0
LINE
8
Calque 1
10
49.687430
20
149.063000
11
49.687430
21
139.641140
0
LINE
8
Calque 1
10
49.687430
20
139.641140
11
46.874930
21
139.641140
0
LINE
8
Calque 1
10
46.874930
20
139.641140
11
46.874930
21
130.359900
0
LINE
8
Calque 1
10
46.874930
20
130.359900
11
49.687430
21
130.359900
0
LINE
8
Calque 1
10
49.687430
20
130.359900
11
49.687430
21
120.891160
0
LINE
8
Calque 1
10
49.687430
20
120.891160
11
46.874930
21
120.891160
0
LINE
8
Calque 1
10
46.874930
20
120.891160
11
46.874930
21
111.609920
0
LINE
8
Calque 1
10
46.874930
20
111.609920
11
49.687430
21
111.609920
0
LINE
8
Calque 1
10
49.687430
20
111.609920
11
49.687430
21
102.188060
0
LINE
8
Calque 1
10
49.687430
20
102.188060
11
40.265570
21
102.188060
0
LINE
8
Calque 1
10
40.265570
20
102.188060
11
40.265570
21
105.000560
0
LINE
8
Calque 1
10
40.265570
20
105.000560
11
30.984330
21
105.000560
0
LINE
8
Calque 1
10
30.984330
20
105.000560
11
30.984330
21
102.188060
0
LINE
8
Calque 1
10
30.984330
20
102.188060
11
21.515590
21
102.188060
0
LINE
8
Calque 1
10
21.515590
20
102.188060
11
21.515590
21
105.000560
0
LINE
8
Calque 1
10
21.515590
20
105.000560
11
12.234350
21
105.000560
0
LINE
8
Calque 1
10
12.234350
20
105.000560
11
12.234350
21
102.188060
0
LINE
8
Calque 1
10
12.234350
20
102.188060
11
2.812490
21
102.188060
0
LINE
8
Calque 1
10
2.812490
20
102.188060
11
2.812490
21
111.609920
0
LINE
8
Calque 1
10
2.812490
20
111.609920
11
5.624990
21
111.609920
0
LINE
8
Calque 1
10
5.624990
20
111.609920
11
5.624990
21
120.891160
0
LINE
8
Calque 1
10
5.624990
20
120.891160
11
2.812490
21
120.891160
0
LINE
8
Calque 1
10
2.812490
20
120.891160
11
2.812490
21
130.359900
0
LINE
8
Calque 1
10
2.812490
20
130.359900
11
5.624990
21
130.359900
0
LINE
8
Calque 1
10
5.624990
20
130.359900
11
5.624990
21
139.641140
0
LINE
8
Calque 1
10
5.624990
20
139.641140
11
2.812490
21
139.641140
0
LINE
8
Calque 1
10
2.812490
20
139.641140
11
2.812490
21
149.063000
0
LINE
8
Calque 1
10
2.812490
20
149.063000
11
2.812490
21
149.063000
0
LINE
8
Calque 1
10
52.499900
20
149.063000
11
61.921760
21
149.063000
0
LINE
8
Calque 1
10
61.921760
20
149.063000
11
61.921760
21
146.250500
0
LINE
8
Calque 1
10
61.921760
20
146.250500
11
71.203000
21
146.250500
0
LINE
8
Calque 1
10
71.203000
20
146.250500
11
71.203000
21
149.063000
0
LINE
8
Calque 1
10
71.203000
20
149.063000
11
80.671740
21
149.063000
0
LINE
8
Calque 1
10
80.671740
20
149.063000
11
80.671740
21
146.250500
0
LINE
8
Calque 1
10
80.671740
20
146.250500
11
89.952980
21
146.250500
0
LINE
8
Calque 1
10
89.952980
20
146.250500
11
89.952980
21
149.063000
0
LINE
8
Calque 1
10
89.952980
20
149.063000
11
99.374840
21
149.063000
0
LINE
8
Calque 1
10
99.374840
20
149.063000
11
99.374840
21
139.641140
0
LINE
8
Calque 1
10
99.374840
20
139.641140
11
96.562340
21
139.641140
0
LINE
8
Calque 1
10
96.562340
20
139.641140
11
96.562340
21
130.359900
0
LINE
8
Calque 1
10
96.562340
20
130.359900
11
99.374840
21
130.359900
0
LINE
8
Calque 1
10
99.374840
20
130.359900
11
99.374840
21
120.891160
0
LINE
8
Calque 1
10
99.374840
20
120.891160
11
96.562340
21
120.891160
0
LINE
8
Calque 1
10
96.562340
20
120.891160
11
96.562340
21
111.609920
0
LINE
8
Calque 1
10
96.562340
20
111.609920
11
99.374840
21
111.609920
0
LINE
8
Calque 1
10
99.374840
20
111.609920
11
99.374840
21
102.188060
0
LINE
8
Calque 1
10
99.374840
20
102.188060
11
89.952980
21
102.188060
0
LINE
8
Calque 1
10
89.952980
20
102.188060
11
89.952980
21
105.000560
0
LINE
8
Calque 1
10
89.952980
20
105.000560
11
80.671740
21
105.000560
0
LINE
8
Calque 1
10
80.671740
20
105.000560
11
80.671740
21
102.188060
0
LINE
8
Calque 1
10
80.671740
20
102.188060
11
71.203000
21
102.188060
0
LINE
8
Calque 1
10
71.203000
20
102.188060
11
71.203000
21
105.000560
0
LINE
8
Calque 1
10
71.203000
20
105.000560
11
61.921760
21
105.000560
0
LINE
8
Calque 1
10
61.921760
20
105.000560
11
61.921760
21
102.188060
0
LINE
8
Calque 1
10
61.921760
20
102.188060
11
52.499900
21
102.188060
0
LINE
8
Calque 1
10
52.499900
20
102.188060
11
52.499900
21
111.609920
0
LINE
8
Calque 1
10
52.499900
20
111.609920
11
55.312400
21
111.609920
0
LINE
8
Calque 1
10
55.312400
20
111.609920
11
55.312400
21
120.891160
0
LINE
8
Calque 1
10
55.312400
20
120.891160
11
52.499900
21
120.891160
0
LINE
8
Calque 1
10
52.499900
20
120.891160
11
52.499900
21
130.359900
0
LINE
8
Calque 1
10
52.499900
20
130.359900
11
55.312400
21
130.359900
0
LINE
8
Calque 1
10
55.312400
20
130.359900
11
55.312400
21
139.641140
0
LINE
8
Calque 1
10
55.312400
20
139.641140
11
52.499900
21
139.641140
0
LINE
8
Calque 1
10
52.499900
20
139.641140
11
52.499900
21
149.063000
0
LINE
8
Calque 1
10
52.499900
20
149.063000
11
52.499900
21
149.063000
0
LINE
8
Calque 1
10
52.499900
20
96.562600
11
61.828010
21
96.562600
0
LINE
8
Calque 1
10
61.828010
20
96.562600
11
61.828010
21
99.375100
0
LINE
8
Calque 1
10
61.828010
20
99.375100
11
71.296750
21
99.375100
0
LINE
8
Calque 1
10
71.296750
20
99.375100
11
71.296750
21
96.562600
0
LINE
8
Calque 1
10
71.296750
20
96.562600
11
80.577990
21
96.562600
0
LINE
8
Calque 1
10
80.577990
20
96.562600
11
80.577990
21
99.375100
0
LINE
8
Calque 1
10
80.577990
20
99.375100
11
90.046730
21
99.375100
0
LINE
8
Calque 1
10
90.046730
20
99.375100
11
90.046730
21
96.562600
0
LINE
8
Calque 1
10
90.046730
20
96.562600
11
99.374840
21
96.562600
0
LINE
8
Calque 1
10
99.374840
20
96.562600
11
99.374840
21
82.765700
0
LINE
8
Calque 1
10
99.374840
20
82.765700
11
96.562340
21
82.765700
0
LINE
8
Calque 1
10
96.562340
20
82.765700
11
96.562340
21
69.109500
0
LINE
8
Calque 1
10
96.562340
20
69.109500
11
99.374840
21
69.109500
0
LINE
8
Calque 1
10
99.374840
20
69.109500
11
99.374840
21
55.312600
0
LINE
8
Calque 1
10
99.374840
20
55.312600
11
90.046730
21
55.312600
0
LINE
8
Calque 1
10
90.046730
20
55.312600
11
90.046730
21
52.500100
0
LINE
8
Calque 1
10
90.046730
20
52.500100
11
80.577990
21
52.500100
0
LINE
8
Calque 1
10
80.577990
20
52.500100
11
80.577990
21
55.312600
0
LINE
8
Calque 1
10
80.577990
20
55.312600
11
71.296750
21
55.312600
0
LINE
8
Calque 1
10
71.296750
20
55.312600
11
71.296750
21
52.500100
0
LINE
8
Calque 1
10
71.296750
20
52.500100
11
61.828010
21
52.500100
0
LINE
8
Calque 1
10
61.828010
20
52.500100
11
61.828010
21
55.312600
0
LINE
8
Calque 1
10
61.828010
20
55.312600
11
52.499900
21
55.312600
0
LINE
8
Calque 1
10
52.499900
20
55.312600
11
52.499900
21
69.109500
0
LINE
8
Calque 1
10
52.499900
20
69.109500
11
55.312400
21
69.109500
0
LINE
8
Calque 1
10
55.312400
20
69.109500
11
55.312400
21
82.765700
0
LINE
8
Calque 1
10
55.312400
20
82.765700
11
52.499900
21
82.765700
0
LINE
8
Calque 1
10
52.499900
20
82.765700
11
52.499900
21
96.562600
0
LINE
8
Calque 1
10
52.499900
20
96.562600
11
52.499900
21
96.562600
0
LINE
8
Calque 1
10
2.812490
20
96.562600
11
12.140600
21
96.562600
0
LINE
8
Calque 1
10
12.140600
20
96.562600
11
12.140600
21
99.375100
0
LINE
8
Calque 1
10
12.140600
20
99.375100
11
21.609340
21
99.375100
0
LINE
8
Calque 1
10
21.609340
20
99.375100
11
21.609340
21
96.562600
0
LINE
8
Calque 1
10
21.609340
20
96.562600
11
30.890580
21
96.562600
0
LINE
8
Calque 1
10
30.890580
20
96.562600
11
30.890580
21
99.375100
0
LINE
8
Calque 1
10
30.890580
20
99.375100
11
40.359320
21
99.375100
0
LINE
8
Calque 1
10
40.359320
20
99.375100
11
40.359320
21
96.562600
0
LINE
8
Calque 1
10
40.359320
20
96.562600
11
49.687430
21
96.562600
0
LINE
8
Calque 1
10
49.687430
20
96.562600
11
49.687430
21
82.765700
0
LINE
8
Calque 1
10
49.687430
20
82.765700
11
46.874930
21
82.765700
0
LINE
8
Calque 1
10
46.874930
20
82.765700
11
46.874930
21
69.109500
0
LINE
8
Calque 1
10
46.874930
20
69.109500
11
49.687430
21
69.109500
0
LINE
8
Calque 1
10
49.687430
20
69.109500
11
49.687430
21
55.312600
0
LINE
8
Calque 1
10
49.687430
20
55.312600
11
40.359320
21
55.312600
0
LINE
8
Calque 1
10
40.359320
20
55.312600
11
40.359320
21
52.500100
0
LINE
8
Calque 1
10
40.359320
20
52.500100
11
30.890580
21
52.500100
0
LINE
8
Calque 1
10
30.890580
20
52.500100
11
30.890580
21
55.312600
0
LINE
8
Calque 1
10
30.890580
20
55.312600
11
21.609340
21
55.312600
0
LINE
8
Calque 1
10
21.609340
20
55.312600
11
21.609340
21
52.500100
0
LINE
8
Calque 1
10
21.609340
20
52.500100
11
12.140600
21
52.500100
0
LINE
8
Calque 1
10
12.140600
20
52.500100
11
12.140600
21
55.312600
0
LINE
8
Calque 1
10
12.140600
20
55.312600
11
2.812490
21
55.312600
0
LINE
8
Calque 1
10
2.812490
20
55.312600
11
2.812490
21
69.109500
0
LINE
8
Calque 1
10
2.812490
20
69.109500
11
5.624990
21
69.109500
0
LINE
8
Calque 1
10
5.624990
20
69.109500
11
5.624990
21
82.765700
0
LINE
8
Calque 1
10
5.624990
20
82.765700
11
2.812490
21
82.765700
0
LINE
8
Calque 1
10
2.812490
20
82.765700
11
2.812490
21
96.562600
0
LINE
8
Calque 1
10
2.812490
20
96.562600
11
2.812490
21
96.562600
0
LINE
8
Calque 1
10
55.312400
20
46.875100
11
61.828020
21
46.875100
0
LINE
8
Calque 1
10
61.828020
20
46.875100
11
61.828020
21
49.687600
0
LINE
8
Calque 1
10
61.828020
20
49.687600
11
71.296760
21
49.687600
0
LINE
8
Calque 1
10
71.296760
20
49.687600
11
71.296760
21
46.875100
0
LINE
8
Calque 1
10
71.296760
20
46.875100
11
80.578000
21
46.875100
0
LINE
8
Calque 1
10
80.578000
20
46.875100
11
80.578000
21
49.687600
0
LINE
8
Calque 1
10
80.578000
20
49.687600
11
90.046740
21
49.687600
0
LINE
8
Calque 1
10
90.046740
20
49.687600
11
90.046740
21
46.875100
0
LINE
8
Calque 1
10
90.046740
20
46.875100
11
96.562360
21
46.875100
0
LINE
8
Calque 1
10
96.562360
20
46.875100
11
96.562360
21
33.172000
0
LINE
8
Calque 1
10
96.562360
20
33.172000
11
99.374860
21
33.172000
0
LINE
8
Calque 1
10
99.374860
20
33.172000
11
99.374860
21
19.328300
0
LINE
8
Calque 1
10
99.374860
20
19.328300
11
96.562360
21
19.328300
0
LINE
8
Calque 1
10
96.562360
20
19.328300
11
96.562360
21
5.625200
0
LINE
8
Calque 1
10
96.562360
20
5.625200
11
90.046740
21
5.625200
0
LINE
8
Calque 1
10
90.046740
20
5.625200
11
90.046740
21
2.812700
0
LINE
8
Calque 1
10
90.046740
20
2.812700
11
80.578000
21
2.812700
0
LINE
8
Calque 1
10
80.578000
20
2.812700
11
80.578000
21
5.625200
0
LINE
8
Calque 1
10
80.578000
20
5.625200
11
71.296760
21
5.625200
0
LINE
8
Calque 1
10
71.296760
20
5.625200
11
71.296760
21
2.812700
0
LINE
8
Calque 1
10
71.296760
20
2.812700
11
61.828020
21
2.812700
0
LINE
8
Calque 1
10
61.828020
20
2.812700
11
61.828020
21
5.625200
0
LINE
8
Calque 1
10
61.828020
20
5.625200
11
55.312400
21
5.625200
0
LINE
8
Calque 1
10
55.312400
20
5.625200
11
55.312400
21
19.328300
0
LINE
8
Calque 1
10
55.312400
20
19.328300
11
52.499900
21
19.328300
0
LINE
8
Calque 1
10
52.499900
20
19.328300
11
52.499900
21
33.172000
0
LINE
8
Calque 1
10
52.499900
20
33.172000
11
55.312400
21
33.172000
0
LINE
8
Calque 1
10
55.312400
20
33.172000
11
55.312400
21
46.875100
0
LINE
8
Calque 1
10
55.312400
20
46.875100
11
55.312400
21
46.875100
0
LINE
8
Calque 1
10
5.624990
20
46.875100
11
12.140610
21
46.875100
0
LINE
8
Calque 1
10
12.140610
20
46.875100
11
12.140610
21
49.687600
0
LINE
8
Calque 1
10
12.140610
20
49.687600
11
21.609350
21
49.687600
0
LINE
8
Calque 1
10
21.609350
20
49.687600
11
21.609350
21
46.875100
0
LINE
8
Calque 1
10
21.609350
20
46.875100
11
30.890590
21
46.875100
0
LINE
8
Calque 1
10
30.890590
20
46.875100
11
30.890590
21
49.687600
0
LINE
8
Calque 1
10
30.890590
20
49.687600
11
40.359330
21
49.687600
0
LINE
8
Calque 1
10
40.359330
20
49.687600
11
40.359330
21
46.875100
0
LINE
8
Calque 1
10
40.359330
20
46.875100
11
46.874950
21
46.875100
0
LINE
8
Calque 1
10
46.874950
20
46.875100
11
46.874950
21
33.172000
0
LINE
8
Calque 1
10
46.874950
20
33.172000
11
49.687450
21
33.172000
0
LINE
8
Calque 1
10
49.687450
20
33.172000
11
49.687450
21
19.328300
0
LINE
8
Calque 1
10
49.687450
20
19.328300
11
46.874950
21
19.328300
0
LINE
8
Calque 1
10
46.874950
20
19.328300
11
46.874950
21
5.625200
0
LINE
8
Calque 1
10
46.874950
20
5.625200
11
40.359330
21
5.625200
0
LINE
8
Calque 1
10
40.359330
20
5.625200
11
40.359330
21
2.812700
0
LINE
8
Calque 1
10
40.359330
20
2.812700
11
30.890590
21
2.812700
0
LINE
8
Calque 1
10
30.890590
20
2.812700
11
30.890590
21
5.625200
0
LINE
8
Calque 1
10
30.890590
20
5.625200
11
21.609350
21
5.625200
0
LINE
8
Calque 1
10
21.609350
20
5.625200
11
21.609350
21
2.812700
0
LINE
8
Calque 1
10
21.609350
20
2.812700
11
12.140610
21
2.812700
0
LINE
8
Calque 1
10
12.140610
20
2.812700
11
12.140610
21
5.625200
0
LINE
8
Calque 1
10
12.140610
20
5.625200
11
5.624990
21
5.625200
0
LINE
8
Calque 1
10
5.624990
20
5.625200
11
5.624990
21
19.328300
0
LINE
8
Calque 1
10
5.624990
20
19.328300
11
2.812490
21
19.328300
0
LINE
8
Calque 1
10
2.812490
20
19.328300
11
2.812490
21
33.172000
0
LINE
8
Calque 1
10
2.812490
20
33.172000
11
5.624990
21
33.172000
0
LINE
8
Calque 1
10
5.624990
20
33.172000
11
5.624990
21
46.875100
0
LINE
8
Calque 1
10
5.624990
20
46.875100
11
5.624990
21
46.875100
 0 
ENDSEC
 0 
EOF