  0
SECTION
  2
HEADER
  9
$ACADVER
  1
AC1014
  9
$HANDSEED
  5
FFFF
  9
$MEASUREMENT
 70
     1
  0
ENDSEC
  0
SECTION
  2
TABLES
  0
TABLE
  2
VPORT
  5
8
330
0
100
AcDbSymbolTable
 70
     4
  0
VPORT
  5
2E
330
8
100
AcDbSymbolTableRecord
100
AcDbViewportTableRecord
  2
*ACTIVE
 70
     0
 10
0.0
 20
0.0
 11
1.0
 21
1.0
 12
210.0
 22
148.5
 13
0.0
 23
0.0
 14
10.0
 24
10.0
 15
10.0
 25
10.0
 16
0.0
 26
0.0
 36
1.0
 17
0.0
 27
0.0
 37
0.0
 40
341.0
 41
1.24
 42
50.0
 43
0.0
 44
0.0
 50
0.0
 51
0.0
 71
     0
 72
   100
 73
     1
 74
     3
 75
     0
 76
     0
 77
     0
 78
     0
  0
ENDTAB
  0
TABLE
  2
LTYPE
  5
5
330
0
100
AcDbSymbolTable
 70
     1
  0
LTYPE
  5
14
330
5
100
AcDbSymbolTableRecord
100
AcDbLinetypeTableRecord
  2
BYBLOCK
 70
     0
  3

 72
    65
 73
     0
 40
0.0
  0
LTYPE
  5
15
330
5
100
AcDbSymbolTableRecord
100
AcDbLinetypeTableRecord
  2
BYLAYER
 70
     0
  3

 72
    65
 73
     0
 40
0.0
  0
LTYPE
  5
16
330
5
100
AcDbSymbolTableRecord
100
AcDbLinetypeTableRecord
  2
CONTINUOUS
 70
     0
  3
Solid line
 72
    65
 73
     0
 40
0.0
  0
ENDTAB
  0
TABLE
  2
LAYER
  5
2
100
AcDbSymbolTable
 70
1
  0
LAYER
  5
50
100
AcDbSymbolTableRecord
100
AcDbLayerTableRecord
  2
0
 70
0
  6
CONTINUOUS
  0
ENDTAB
  0
TABLE
  2
STYLE
  5
3
330
0
100
AcDbSymbolTable
 70
     1
  0
STYLE
  5
11
330
3
100
AcDbSymbolTableRecord
100
AcDbTextStyleTableRecord
  2
STANDARD
 70
     0
 40
0.0
 41
1.0
 50
0.0
 71
     0
 42
2.5
  3
txt
  4

  0
ENDTAB
  0
TABLE
  2
VIEW
  5
6
330
0
100
AcDbSymbolTable
 70
     0
  0
ENDTAB
  0
TABLE
  2
UCS
  5
7
330
0
100
AcDbSymbolTable
 70
     0
  0
ENDTAB
  0
TABLE
  2
APPID
  5
9
330
0
100
AcDbSymbolTable
 70
     2
  0
APPID
  5
12
330
9
100
AcDbSymbolTableRecord
100
AcDbRegAppTableRecord
  2
ACAD
 70
     0
  0
ENDTAB
  0
TABLE
  2
DIMSTYLE
  5
A
330
0
100
AcDbSymbolTable
 70
     1
  0
DIMSTYLE
105
27
330
A
100
AcDbSymbolTableRecord
100
AcDbDimStyleTableRecord
  2
ISO-25
 70
     0
  3

  4

  5

  6

  7

 40
1.0
 41
2.5
 42
0.625
 43
3.75
 44
1.25
 45
0.0
 46
0.0
 47
0.0
 48
0.0
140
2.5
141
2.5
142
0.0
143
0.03937007874016
144
1.0
145
0.0
146
1.0
147
0.625
 71
     0
 72
     0
 73
     0
 74
     0
 75
     0
 76
     0
 77
     1
 78
     8
170
     0
171
     3
172
     1
173
     0
174
     0
175
     0
176
     0
177
     0
178
     0
270
     2
271
     2
272
     2
273
     2
274
     3
340
11
275
     0
280
     0
281
     0
282
     0
283
     0
284
     8
285
     0
286
     0
287
     3
288
     0
  0
ENDTAB
  0
TABLE
  2
BLOCK_RECORD
  5
1
330
0
100
AcDbSymbolTable
 70
     1
  0
BLOCK_RECORD
  5
1F
330
1
100
AcDbSymbolTableRecord
100
AcDbBlockTableRecord
  2
*MODEL_SPACE
  0
BLOCK_RECORD
  5
1B
330
1
100
AcDbSymbolTableRecord
100
AcDbBlockTableRecord
  2
*PAPER_SPACE
  0
ENDTAB
  0
ENDSEC
  0
SECTION
  2
BLOCKS
  0
BLOCK
  5
20
330
1F
100
AcDbEntity
  8
0
100
AcDbBlockBegin
  2
*MODEL_SPACE
 70
     0
 10
0.0
 20
0.0
 30
0.0
  3
*MODEL_SPACE
  1

  0
ENDBLK
  5
21
330
1F
100
AcDbEntity
  8
0
100
AcDbBlockEnd
  0
BLOCK
  5
1C
330
1B
100
AcDbEntity
 67
     1
  8
0
100
AcDbBlockBegin
  2
*PAPER_SPACE
  1

  0
ENDBLK
  5
1D
330
1B
100
AcDbEntity
 67
     1
  8
0
100
AcDbBlockEnd
  0
ENDSEC
  0
SECTION
  2
ENTITIES
  0
LINE
  5
100
100
AcDbEntity
  8
0
 62
1
100
AcDbLine
 10
207.200000
 20
170.967000
 30
0.0
 11
185.397000
 21
170.967000
 31
0.0
  0
LINE
  5
101
100
AcDbEntity
  8
0
 62
1
100
AcDbLine
 10
185.397000
 20
170.967000
 30
0.0
 11
185.397000
 21
173.967000
 31
0.0
  0
LINE
  5
102
100
AcDbEntity
  8
0
 62
1
100
AcDbLine
 10
185.397000
 20
173.967000
 30
0.0
 11
172.553000
 21
173.967000
 31
0.0
  0
LINE
  5
103
100
AcDbEntity
  8
0
 62
1
100
AcDbLine
 10
172.553000
 20
173.967000
 30
0.0
 11
172.553000
 21
170.967000
 31
0.0
  0
LINE
  5
104
100
AcDbEntity
  8
0
 62
1
100
AcDbLine
 10
172.553000
 20
170.967000
 30
0.0
 11
159.709000
 21
170.967000
 31
0.0
  0
LINE
  5
105
100
AcDbEntity
  8
0
 62
1
100
AcDbLine
 10
159.709000
 20
170.967000
 30
0.0
 11
159.709000
 21
173.967000
 31
0.0
  0
LINE
  5
106
100
AcDbEntity
  8
0
 62
1
100
AcDbLine
 10
159.709000
 20
173.967000
 30
0.0
 11
146.866000
 21
173.967000
 31
0.0
  0
LINE
  5
107
100
AcDbEntity
  8
0
 62
1
100
AcDbLine
 10
146.866000
 20
173.967000
 30
0.0
 11
146.866000
 21
170.967000
 31
0.0
  0
LINE
  5
108
100
AcDbEntity
  8
0
 62
1
100
AcDbLine
 10
146.866000
 20
170.967000
 30
0.0
 11
134.022000
 21
170.967000
 31
0.0
  0
LINE
  5
109
100
AcDbEntity
  8
0
 62
1
100
AcDbLine
 10
134.022000
 20
170.967000
 30
0.0
 11
134.022000
 21
173.967000
 31
0.0
  0
LINE
  5
10a
100
AcDbEntity
  8
0
 62
1
100
AcDbLine
 10
134.022000
 20
173.967000
 30
0.0
 11
121.178000
 21
173.967000
 31
0.0
  0
LINE
  5
10b
100
AcDbEntity
  8
0
 62
1
100
AcDbLine
 10
121.178000
 20
173.967000
 30
0.0
 11
121.178000
 21
170.967000
 31
0.0
  0
LINE
  5
10c
100
AcDbEntity
  8
0
 62
1
100
AcDbLine
 10
121.178000
 20
170.967000
 30
0.0
 11
108.334000
 21
170.967000
 31
0.0
  0
LINE
  5
10d
100
AcDbEntity
  8
0
 62
1
100
AcDbLine
 10
108.334000
 20
170.967000
 30
0.0
 11
108.334000
 21
173.967000
 31
0.0
  0
LINE
  5
10e
100
AcDbEntity
  8
0
 62
1
100
AcDbLine
 10
108.334000
 20
173.967000
 30
0.0
 11
95.491000
 21
173.967000
 31
0.0
  0
LINE
  5
10f
100
AcDbEntity
  8
0
 62
1
100
AcDbLine
 10
95.491000
 20
173.967000
 30
0.0
 11
95.491000
 21
170.967000
 31
0.0
  0
LINE
  5
110
100
AcDbEntity
  8
0
 62
1
100
AcDbLine
 10
95.491000
 20
170.967000
 30
0.0
 11
82.647000
 21
170.967000
 31
0.0
  0
LINE
  5
111
100
AcDbEntity
  8
0
 62
1
100
AcDbLine
 10
82.647000
 20
170.967000
 30
0.0
 11
82.647000
 21
173.967000
 31
0.0
  0
LINE
  5
112
100
AcDbEntity
  8
0
 62
1
100
AcDbLine
 10
82.647000
 20
173.967000
 30
0.0
 11
69.803000
 21
173.967000
 31
0.0
  0
LINE
  5
113
100
AcDbEntity
  8
0
 62
1
100
AcDbLine
 10
69.803000
 20
173.967000
 30
0.0
 11
69.803000
 21
170.967000
 31
0.0
  0
LINE
  5
114
100
AcDbEntity
  8
0
 62
1
100
AcDbLine
 10
69.803000
 20
170.967000
 30
0.0
 11
56.959000
 21
170.967000
 31
0.0
  0
LINE
  5
115
100
AcDbEntity
  8
0
 62
1
100
AcDbLine
 10
56.959000
 20
170.967000
 30
0.0
 11
48.000000
 21
170.967000
 31
0.0
  0
LINE
  5
116
100
AcDbEntity
  8
0
 62
1
100
AcDbLine
 10
48.000000
 20
170.967000
 30
0.0
 11
45.501000
 21
170.898000
 31
0.0
  0
LINE
  5
117
100
AcDbEntity
  8
0
 62
1
100
AcDbLine
 10
45.501000
 20
170.898000
 30
0.0
 11
43.010000
 21
170.690000
 31
0.0
  0
LINE
  5
118
100
AcDbEntity
  8
0
 62
1
100
AcDbLine
 10
43.010000
 20
170.690000
 30
0.0
 11
40.535000
 21
170.343000
 31
0.0
  0
LINE
  5
119
100
AcDbEntity
  8
0
 62
1
100
AcDbLine
 10
40.535000
 20
170.343000
 30
0.0
 11
38.082000
 21
169.860000
 31
0.0
  0
LINE
  5
11a
100
AcDbEntity
  8
0
 62
1
100
AcDbLine
 10
38.082000
 20
169.860000
 30
0.0
 11
35.660000
 21
169.242000
 31
0.0
  0
LINE
  5
11b
100
AcDbEntity
  8
0
 62
1
100
AcDbLine
 10
35.660000
 20
169.242000
 30
0.0
 11
33.276000
 21
168.490000
 31
0.0
  0
LINE
  5
11c
100
AcDbEntity
  8
0
 62
1
100
AcDbLine
 10
33.276000
 20
168.490000
 30
0.0
 11
30.938000
 21
167.607000
 31
0.0
  0
LINE
  5
11d
100
AcDbEntity
  8
0
 62
1
100
AcDbLine
 10
30.938000
 20
167.607000
 30
0.0
 11
28.652000
 21
166.595000
 31
0.0
  0
LINE
  5
11e
100
AcDbEntity
  8
0
 62
1
100
AcDbLine
 10
28.652000
 20
166.595000
 30
0.0
 11
26.426000
 21
165.458000
 31
0.0
  0
LINE
  5
11f
100
AcDbEntity
  8
0
 62
1
100
AcDbLine
 10
26.426000
 20
165.458000
 30
0.0
 11
24.266000
 21
164.199000
 31
0.0
  0
LINE
  5
120
100
AcDbEntity
  8
0
 62
1
100
AcDbLine
 10
24.266000
 20
164.199000
 30
0.0
 11
22.180000
 21
162.822000
 31
0.0
  0
LINE
  5
121
100
AcDbEntity
  8
0
 62
1
100
AcDbLine
 10
22.180000
 20
162.822000
 30
0.0
 11
20.173000
 21
161.332000
 31
0.0
  0
LINE
  5
122
100
AcDbEntity
  8
0
 62
1
100
AcDbLine
 10
20.173000
 20
161.332000
 30
0.0
 11
18.253000
 21
159.732000
 31
0.0
  0
LINE
  5
123
100
AcDbEntity
  8
0
 62
1
100
AcDbLine
 10
18.253000
 20
159.732000
 30
0.0
 11
16.424000
 21
158.028000
 31
0.0
  0
LINE
  5
124
100
AcDbEntity
  8
0
 62
1
100
AcDbLine
 10
16.424000
 20
158.028000
 30
0.0
 11
14.692000
 21
156.226000
 31
0.0
  0
LINE
  5
125
100
AcDbEntity
  8
0
 62
1
100
AcDbLine
 10
14.692000
 20
156.226000
 30
0.0
 11
13.063000
 21
154.329000
 31
0.0
  0
LINE
  5
126
100
AcDbEntity
  8
0
 62
1
100
AcDbLine
 10
13.063000
 20
154.329000
 30
0.0
 11
11.542000
 21
152.346000
 31
0.0
  0
LINE
  5
127
100
AcDbEntity
  8
0
 62
1
100
AcDbLine
 10
11.542000
 20
152.346000
 30
0.0
 11
10.134000
 21
150.281000
 31
0.0
  0
LINE
  5
128
100
AcDbEntity
  8
0
 62
1
100
AcDbLine
 10
10.134000
 20
150.281000
 30
0.0
 11
8.842000
 21
148.140000
 31
0.0
  0
LINE
  5
129
100
AcDbEntity
  8
0
 62
1
100
AcDbLine
 10
8.842000
 20
148.140000
 30
0.0
 11
7.671000
 21
145.932000
 31
0.0
  0
LINE
  5
12a
100
AcDbEntity
  8
0
 62
1
100
AcDbLine
 10
7.671000
 20
145.932000
 30
0.0
 11
6.625000
 21
143.662000
 31
0.0
  0
LINE
  5
12b
100
AcDbEntity
  8
0
 62
1
100
AcDbLine
 10
6.625000
 20
143.662000
 30
0.0
 11
5.706000
 21
141.337000
 31
0.0
  0
LINE
  5
12c
100
AcDbEntity
  8
0
 62
1
100
AcDbLine
 10
5.706000
 20
141.337000
 30
0.0
 11
4.918000
 21
138.965000
 31
0.0
  0
LINE
  5
12d
100
AcDbEntity
  8
0
 62
1
100
AcDbLine
 10
4.918000
 20
138.965000
 30
0.0
 11
4.263000
 21
136.553000
 31
0.0
  0
LINE
  5
12e
100
AcDbEntity
  8
0
 62
1
100
AcDbLine
 10
4.263000
 20
136.553000
 30
0.0
 11
3.742000
 21
134.108000
 31
0.0
  0
LINE
  5
12f
100
AcDbEntity
  8
0
 62
1
100
AcDbLine
 10
3.742000
 20
134.108000
 30
0.0
 11
3.359000
 21
131.638000
 31
0.0
  0
LINE
  5
130
100
AcDbEntity
  8
0
 62
1
100
AcDbLine
 10
3.359000
 20
131.638000
 30
0.0
 11
3.113000
 21
129.150000
 31
0.0
  0
LINE
  5
131
100
AcDbEntity
  8
0
 62
1
100
AcDbLine
 10
3.113000
 20
129.150000
 30
0.0
 11
3.005000
 21
126.653000
 31
0.0
  0
LINE
  5
132
100
AcDbEntity
  8
0
 62
1
100
AcDbLine
 10
3.005000
 20
126.653000
 30
0.0
 11
3.000000
 21
125.967000
 31
0.0
  0
LINE
  5
133
100
AcDbEntity
  8
0
 62
1
100
AcDbLine
 10
3.000000
 20
125.967000
 30
0.0
 11
3.000000
 21
106.249000
 31
0.0
  0
LINE
  5
134
100
AcDbEntity
  8
0
 62
1
100
AcDbLine
 10
3.000000
 20
106.249000
 30
0.0
 11
0.000000
 21
106.249000
 31
0.0
  0
LINE
  5
135
100
AcDbEntity
  8
0
 62
1
100
AcDbLine
 10
0.000000
 20
106.249000
 30
0.0
 11
0.000000
 21
93.405000
 31
0.0
  0
LINE
  5
136
100
AcDbEntity
  8
0
 62
1
100
AcDbLine
 10
0.000000
 20
93.405000
 30
0.0
 11
3.000000
 21
93.405000
 31
0.0
  0
LINE
  5
137
100
AcDbEntity
  8
0
 62
1
100
AcDbLine
 10
3.000000
 20
93.405000
 30
0.0
 11
3.000000
 21
80.561000
 31
0.0
  0
LINE
  5
138
100
AcDbEntity
  8
0
 62
1
100
AcDbLine
 10
3.000000
 20
80.561000
 30
0.0
 11
0.000000
 21
80.561000
 31
0.0
  0
LINE
  5
139
100
AcDbEntity
  8
0
 62
1
100
AcDbLine
 10
0.000000
 20
80.561000
 30
0.0
 11
0.000000
 21
67.718000
 31
0.0
  0
LINE
  5
13a
100
AcDbEntity
  8
0
 62
1
100
AcDbLine
 10
0.000000
 20
67.718000
 30
0.0
 11
3.000000
 21
67.718000
 31
0.0
  0
LINE
  5
13b
100
AcDbEntity
  8
0
 62
1
100
AcDbLine
 10
3.000000
 20
67.718000
 30
0.0
 11
3.000000
 21
54.874000
 31
0.0
  0
LINE
  5
13c
100
AcDbEntity
  8
0
 62
1
100
AcDbLine
 10
3.000000
 20
54.874000
 30
0.0
 11
3.000000
 21
48.000000
 31
0.0
  0
LINE
  5
13d
100
AcDbEntity
  8
0
 62
1
100
AcDbLine
 10
3.000000
 20
48.000000
 30
0.0
 11
3.069000
 21
45.501000
 31
0.0
  0
LINE
  5
13e
100
AcDbEntity
  8
0
 62
1
100
AcDbLine
 10
3.069000
 20
45.501000
 30
0.0
 11
3.277000
 21
43.010000
 31
0.0
  0
LINE
  5
13f
100
AcDbEntity
  8
0
 62
1
100
AcDbLine
 10
3.277000
 20
43.010000
 30
0.0
 11
3.624000
 21
40.534000
 31
0.0
  0
LINE
  5
140
100
AcDbEntity
  8
0
 62
1
100
AcDbLine
 10
3.624000
 20
40.534000
 30
0.0
 11
4.107000
 21
38.082000
 31
0.0
  0
LINE
  5
141
100
AcDbEntity
  8
0
 62
1
100
AcDbLine
 10
4.107000
 20
38.082000
 30
0.0
 11
4.725000
 21
35.660000
 31
0.0
  0
LINE
  5
142
100
AcDbEntity
  8
0
 62
1
100
AcDbLine
 10
4.725000
 20
35.660000
 30
0.0
 11
5.477000
 21
33.276000
 31
0.0
  0
LINE
  5
143
100
AcDbEntity
  8
0
 62
1
100
AcDbLine
 10
5.477000
 20
33.276000
 30
0.0
 11
6.360000
 21
30.937000
 31
0.0
  0
LINE
  5
144
100
AcDbEntity
  8
0
 62
1
100
AcDbLine
 10
6.360000
 20
30.937000
 30
0.0
 11
7.372000
 21
28.652000
 31
0.0
  0
LINE
  5
145
100
AcDbEntity
  8
0
 62
1
100
AcDbLine
 10
7.372000
 20
28.652000
 30
0.0
 11
8.509000
 21
26.426000
 31
0.0
  0
LINE
  5
146
100
AcDbEntity
  8
0
 62
1
100
AcDbLine
 10
8.509000
 20
26.426000
 30
0.0
 11
9.768000
 21
24.266000
 31
0.0
  0
LINE
  5
147
100
AcDbEntity
  8
0
 62
1
100
AcDbLine
 10
9.768000
 20
24.266000
 30
0.0
 11
11.145000
 21
22.180000
 31
0.0
  0
LINE
  5
148
100
AcDbEntity
  8
0
 62
1
100
AcDbLine
 10
11.145000
 20
22.180000
 30
0.0
 11
12.635000
 21
20.173000
 31
0.0
  0
LINE
  5
149
100
AcDbEntity
  8
0
 62
1
100
AcDbLine
 10
12.635000
 20
20.173000
 30
0.0
 11
14.235000
 21
18.252000
 31
0.0
  0
LINE
  5
14a
100
AcDbEntity
  8
0
 62
1
100
AcDbLine
 10
14.235000
 20
18.252000
 30
0.0
 11
15.939000
 21
16.423000
 31
0.0
  0
LINE
  5
14b
100
AcDbEntity
  8
0
 62
1
100
AcDbLine
 10
15.939000
 20
16.423000
 30
0.0
 11
17.741000
 21
14.692000
 31
0.0
  0
LINE
  5
14c
100
AcDbEntity
  8
0
 62
1
100
AcDbLine
 10
17.741000
 20
14.692000
 30
0.0
 11
19.638000
 21
13.063000
 31
0.0
  0
LINE
  5
14d
100
AcDbEntity
  8
0
 62
1
100
AcDbLine
 10
19.638000
 20
13.063000
 30
0.0
 11
21.621000
 21
11.542000
 31
0.0
  0
LINE
  5
14e
100
AcDbEntity
  8
0
 62
1
100
AcDbLine
 10
21.621000
 20
11.542000
 30
0.0
 11
23.686000
 21
10.133000
 31
0.0
  0
LINE
  5
14f
100
AcDbEntity
  8
0
 62
1
100
AcDbLine
 10
23.686000
 20
10.133000
 30
0.0
 11
25.827000
 21
8.842000
 31
0.0
  0
LINE
  5
150
100
AcDbEntity
  8
0
 62
1
100
AcDbLine
 10
25.827000
 20
8.842000
 30
0.0
 11
28.035000
 21
7.671000
 31
0.0
  0
LINE
  5
151
100
AcDbEntity
  8
0
 62
1
100
AcDbLine
 10
28.035000
 20
7.671000
 30
0.0
 11
30.305000
 21
6.625000
 31
0.0
  0
LINE
  5
152
100
AcDbEntity
  8
0
 62
1
100
AcDbLine
 10
30.305000
 20
6.625000
 30
0.0
 11
32.630000
 21
5.706000
 31
0.0
  0
LINE
  5
153
100
AcDbEntity
  8
0
 62
1
100
AcDbLine
 10
32.630000
 20
5.706000
 30
0.0
 11
35.002000
 21
4.918000
 31
0.0
  0
LINE
  5
154
100
AcDbEntity
  8
0
 62
1
100
AcDbLine
 10
35.002000
 20
4.918000
 30
0.0
 11
37.414000
 21
4.262000
 31
0.0
  0
LINE
  5
155
100
AcDbEntity
  8
0
 62
1
100
AcDbLine
 10
37.414000
 20
4.262000
 30
0.0
 11
39.859000
 21
3.742000
 31
0.0
  0
LINE
  5
156
100
AcDbEntity
  8
0
 62
1
100
AcDbLine
 10
39.859000
 20
3.742000
 30
0.0
 11
42.329000
 21
3.358000
 31
0.0
  0
LINE
  5
157
100
AcDbEntity
  8
0
 62
1
100
AcDbLine
 10
42.329000
 20
3.358000
 30
0.0
 11
44.817000
 21
3.112000
 31
0.0
  0
LINE
  5
158
100
AcDbEntity
  8
0
 62
1
100
AcDbLine
 10
44.817000
 20
3.112000
 30
0.0
 11
47.314000
 21
3.005000
 31
0.0
  0
LINE
  5
159
100
AcDbEntity
  8
0
 62
1
100
AcDbLine
 10
47.314000
 20
3.005000
 30
0.0
 11
48.000000
 21
3.000000
 31
0.0
  0
LINE
  5
15a
100
AcDbEntity
  8
0
 62
1
100
AcDbLine
 10
48.000000
 20
3.000000
 30
0.0
 11
68.534000
 21
3.000000
 31
0.0
  0
LINE
  5
15b
100
AcDbEntity
  8
0
 62
1
100
AcDbLine
 10
68.534000
 20
3.000000
 30
0.0
 11
68.534000
 21
-0.000000
 31
0.0
  0
LINE
  5
15c
100
AcDbEntity
  8
0
 62
1
100
AcDbLine
 10
68.534000
 20
-0.000000
 30
0.0
 11
81.378000
 21
-0.000000
 31
0.0
  0
LINE
  5
15d
100
AcDbEntity
  8
0
 62
1
100
AcDbLine
 10
81.378000
 20
-0.000000
 30
0.0
 11
81.378000
 21
3.000000
 31
0.0
  0
LINE
  5
15e
100
AcDbEntity
  8
0
 62
1
100
AcDbLine
 10
81.378000
 20
3.000000
 30
0.0
 11
94.222000
 21
3.000000
 31
0.0
  0
LINE
  5
15f
100
AcDbEntity
  8
0
 62
1
100
AcDbLine
 10
94.222000
 20
3.000000
 30
0.0
 11
94.222000
 21
-0.000000
 31
0.0
  0
LINE
  5
160
100
AcDbEntity
  8
0
 62
1
100
AcDbLine
 10
94.222000
 20
-0.000000
 30
0.0
 11
107.066000
 21
-0.000000
 31
0.0
  0
LINE
  5
161
100
AcDbEntity
  8
0
 62
1
100
AcDbLine
 10
107.066000
 20
-0.000000
 30
0.0
 11
107.066000
 21
3.000000
 31
0.0
  0
LINE
  5
162
100
AcDbEntity
  8
0
 62
1
100
AcDbLine
 10
107.066000
 20
3.000000
 30
0.0
 11
119.909000
 21
3.000000
 31
0.0
  0
LINE
  5
163
100
AcDbEntity
  8
0
 62
1
100
AcDbLine
 10
119.909000
 20
3.000000
 30
0.0
 11
127.600000
 21
3.000000
 31
0.0
  0
LINE
  5
164
100
AcDbEntity
  8
0
 62
1
100
AcDbLine
 10
127.600000
 20
3.000000
 30
0.0
 11
148.134000
 21
3.000000
 31
0.0
  0
LINE
  5
165
100
AcDbEntity
  8
0
 62
1
100
AcDbLine
 10
148.134000
 20
3.000000
 30
0.0
 11
148.134000
 21
-0.000000
 31
0.0
  0
LINE
  5
166
100
AcDbEntity
  8
0
 62
1
100
AcDbLine
 10
148.134000
 20
-0.000000
 30
0.0
 11
160.978000
 21
-0.000000
 31
0.0
  0
LINE
  5
167
100
AcDbEntity
  8
0
 62
1
100
AcDbLine
 10
160.978000
 20
-0.000000
 30
0.0
 11
160.978000
 21
3.000000
 31
0.0
  0
LINE
  5
168
100
AcDbEntity
  8
0
 62
1
100
AcDbLine
 10
160.978000
 20
3.000000
 30
0.0
 11
173.822000
 21
3.000000
 31
0.0
  0
LINE
  5
169
100
AcDbEntity
  8
0
 62
1
100
AcDbLine
 10
173.822000
 20
3.000000
 30
0.0
 11
173.822000
 21
-0.000000
 31
0.0
  0
LINE
  5
16a
100
AcDbEntity
  8
0
 62
1
100
AcDbLine
 10
173.822000
 20
-0.000000
 30
0.0
 11
186.666000
 21
-0.000000
 31
0.0
  0
LINE
  5
16b
100
AcDbEntity
  8
0
 62
1
100
AcDbLine
 10
186.666000
 20
-0.000000
 30
0.0
 11
186.666000
 21
3.000000
 31
0.0
  0
LINE
  5
16c
100
AcDbEntity
  8
0
 62
1
100
AcDbLine
 10
186.666000
 20
3.000000
 30
0.0
 11
199.509000
 21
3.000000
 31
0.0
  0
LINE
  5
16d
100
AcDbEntity
  8
0
 62
1
100
AcDbLine
 10
199.509000
 20
3.000000
 30
0.0
 11
207.200000
 21
3.000000
 31
0.0
  0
LINE
  5
16e
100
AcDbEntity
  8
0
 62
1
100
AcDbLine
 10
207.200000
 20
3.000000
 30
0.0
 11
209.699000
 21
3.069000
 31
0.0
  0
LINE
  5
16f
100
AcDbEntity
  8
0
 62
1
100
AcDbLine
 10
209.699000
 20
3.069000
 30
0.0
 11
212.190000
 21
3.277000
 31
0.0
  0
LINE
  5
170
100
AcDbEntity
  8
0
 62
1
100
AcDbLine
 10
212.190000
 20
3.277000
 30
0.0
 11
214.665000
 21
3.623000
 31
0.0
  0
LINE
  5
171
100
AcDbEntity
  8
0
 62
1
100
AcDbLine
 10
214.665000
 20
3.623000
 30
0.0
 11
217.118000
 21
4.106000
 31
0.0
  0
LINE
  5
172
100
AcDbEntity
  8
0
 62
1
100
AcDbLine
 10
217.118000
 20
4.106000
 30
0.0
 11
219.540000
 21
4.725000
 31
0.0
  0
LINE
  5
173
100
AcDbEntity
  8
0
 62
1
100
AcDbLine
 10
219.540000
 20
4.725000
 30
0.0
 11
221.924000
 21
5.477000
 31
0.0
  0
LINE
  5
174
100
AcDbEntity
  8
0
 62
1
100
AcDbLine
 10
221.924000
 20
5.477000
 30
0.0
 11
224.262000
 21
6.360000
 31
0.0
  0
LINE
  5
175
100
AcDbEntity
  8
0
 62
1
100
AcDbLine
 10
224.262000
 20
6.360000
 30
0.0
 11
226.548000
 21
7.371000
 31
0.0
  0
LINE
  5
176
100
AcDbEntity
  8
0
 62
1
100
AcDbLine
 10
226.548000
 20
7.371000
 30
0.0
 11
228.774000
 21
8.508000
 31
0.0
  0
LINE
  5
177
100
AcDbEntity
  8
0
 62
1
100
AcDbLine
 10
228.774000
 20
8.508000
 30
0.0
 11
230.934000
 21
9.767000
 31
0.0
  0
LINE
  5
178
100
AcDbEntity
  8
0
 62
1
100
AcDbLine
 10
230.934000
 20
9.767000
 30
0.0
 11
233.020000
 21
11.144000
 31
0.0
  0
LINE
  5
179
100
AcDbEntity
  8
0
 62
1
100
AcDbLine
 10
233.020000
 20
11.144000
 30
0.0
 11
235.027000
 21
12.635000
 31
0.0
  0
LINE
  5
17a
100
AcDbEntity
  8
0
 62
1
100
AcDbLine
 10
235.027000
 20
12.635000
 30
0.0
 11
236.947000
 21
14.234000
 31
0.0
  0
LINE
  5
17b
100
AcDbEntity
  8
0
 62
1
100
AcDbLine
 10
236.947000
 20
14.234000
 30
0.0
 11
238.776000
 21
15.938000
 31
0.0
  0
LINE
  5
17c
100
AcDbEntity
  8
0
 62
1
100
AcDbLine
 10
238.776000
 20
15.938000
 30
0.0
 11
240.508000
 21
17.741000
 31
0.0
  0
LINE
  5
17d
100
AcDbEntity
  8
0
 62
1
100
AcDbLine
 10
240.508000
 20
17.741000
 30
0.0
 11
242.137000
 21
19.637000
 31
0.0
  0
LINE
  5
17e
100
AcDbEntity
  8
0
 62
1
100
AcDbLine
 10
242.137000
 20
19.637000
 30
0.0
 11
243.658000
 21
21.621000
 31
0.0
  0
LINE
  5
17f
100
AcDbEntity
  8
0
 62
1
100
AcDbLine
 10
243.658000
 20
21.621000
 30
0.0
 11
245.066000
 21
23.686000
 31
0.0
  0
LINE
  5
180
100
AcDbEntity
  8
0
 62
1
100
AcDbLine
 10
245.066000
 20
23.686000
 30
0.0
 11
246.358000
 21
25.826000
 31
0.0
  0
LINE
  5
181
100
AcDbEntity
  8
0
 62
1
100
AcDbLine
 10
246.358000
 20
25.826000
 30
0.0
 11
247.529000
 21
28.035000
 31
0.0
  0
LINE
  5
182
100
AcDbEntity
  8
0
 62
1
100
AcDbLine
 10
247.529000
 20
28.035000
 30
0.0
 11
248.575000
 21
30.305000
 31
0.0
  0
LINE
  5
183
100
AcDbEntity
  8
0
 62
1
100
AcDbLine
 10
248.575000
 20
30.305000
 30
0.0
 11
249.494000
 21
32.630000
 31
0.0
  0
LINE
  5
184
100
AcDbEntity
  8
0
 62
1
100
AcDbLine
 10
249.494000
 20
32.630000
 30
0.0
 11
250.282000
 21
35.002000
 31
0.0
  0
LINE
  5
185
100
AcDbEntity
  8
0
 62
1
100
AcDbLine
 10
250.282000
 20
35.002000
 30
0.0
 11
250.937000
 21
37.414000
 31
0.0
  0
LINE
  5
186
100
AcDbEntity
  8
0
 62
1
100
AcDbLine
 10
250.937000
 20
37.414000
 30
0.0
 11
251.457000
 21
39.859000
 31
0.0
  0
LINE
  5
187
100
AcDbEntity
  8
0
 62
1
100
AcDbLine
 10
251.457000
 20
39.859000
 30
0.0
 11
251.841000
 21
42.329000
 31
0.0
  0
LINE
  5
188
100
AcDbEntity
  8
0
 62
1
100
AcDbLine
 10
251.841000
 20
42.329000
 30
0.0
 11
252.087000
 21
44.816000
 31
0.0
  0
LINE
  5
189
100
AcDbEntity
  8
0
 62
1
100
AcDbLine
 10
252.087000
 20
44.816000
 30
0.0
 11
252.195000
 21
47.314000
 31
0.0
  0
LINE
  5
18a
100
AcDbEntity
  8
0
 62
1
100
AcDbLine
 10
252.195000
 20
47.314000
 30
0.0
 11
252.200000
 21
48.000000
 31
0.0
  0
LINE
  5
18b
100
AcDbEntity
  8
0
 62
1
100
AcDbLine
 10
252.200000
 20
48.000000
 30
0.0
 11
252.200000
 21
67.718000
 31
0.0
  0
LINE
  5
18c
100
AcDbEntity
  8
0
 62
1
100
AcDbLine
 10
252.200000
 20
67.718000
 30
0.0
 11
255.200000
 21
67.718000
 31
0.0
  0
LINE
  5
18d
100
AcDbEntity
  8
0
 62
1
100
AcDbLine
 10
255.200000
 20
67.718000
 30
0.0
 11
255.200000
 21
80.561000
 31
0.0
  0
LINE
  5
18e
100
AcDbEntity
  8
0
 62
1
100
AcDbLine
 10
255.200000
 20
80.561000
 30
0.0
 11
252.200000
 21
80.561000
 31
0.0
  0
LINE
  5
18f
100
AcDbEntity
  8
0
 62
1
100
AcDbLine
 10
252.200000
 20
80.561000
 30
0.0
 11
252.200000
 21
93.405000
 31
0.0
  0
LINE
  5
190
100
AcDbEntity
  8
0
 62
1
100
AcDbLine
 10
252.200000
 20
93.405000
 30
0.0
 11
255.200000
 21
93.405000
 31
0.0
  0
LINE
  5
191
100
AcDbEntity
  8
0
 62
1
100
AcDbLine
 10
255.200000
 20
93.405000
 30
0.0
 11
255.200000
 21
106.249000
 31
0.0
  0
LINE
  5
192
100
AcDbEntity
  8
0
 62
1
100
AcDbLine
 10
255.200000
 20
106.249000
 30
0.0
 11
252.200000
 21
106.249000
 31
0.0
  0
LINE
  5
193
100
AcDbEntity
  8
0
 62
1
100
AcDbLine
 10
252.200000
 20
106.249000
 30
0.0
 11
252.200000
 21
119.093000
 31
0.0
  0
LINE
  5
194
100
AcDbEntity
  8
0
 62
1
100
AcDbLine
 10
252.200000
 20
119.093000
 30
0.0
 11
252.200000
 21
125.967000
 31
0.0
  0
LINE
  5
195
100
AcDbEntity
  8
0
 62
1
100
AcDbLine
 10
252.200000
 20
125.967000
 30
0.0
 11
252.131000
 21
128.466000
 31
0.0
  0
LINE
  5
196
100
AcDbEntity
  8
0
 62
1
100
AcDbLine
 10
252.131000
 20
128.466000
 30
0.0
 11
251.922000
 21
130.957000
 31
0.0
  0
LINE
  5
197
100
AcDbEntity
  8
0
 62
1
100
AcDbLine
 10
251.922000
 20
130.957000
 30
0.0
 11
251.576000
 21
133.432000
 31
0.0
  0
LINE
  5
198
100
AcDbEntity
  8
0
 62
1
100
AcDbLine
 10
251.576000
 20
133.432000
 30
0.0
 11
251.093000
 21
135.885000
 31
0.0
  0
LINE
  5
199
100
AcDbEntity
  8
0
 62
1
100
AcDbLine
 10
251.093000
 20
135.885000
 30
0.0
 11
250.475000
 21
138.307000
 31
0.0
  0
LINE
  5
19a
100
AcDbEntity
  8
0
 62
1
100
AcDbLine
 10
250.475000
 20
138.307000
 30
0.0
 11
249.723000
 21
140.691000
 31
0.0
  0
LINE
  5
19b
100
AcDbEntity
  8
0
 62
1
100
AcDbLine
 10
249.723000
 20
140.691000
 30
0.0
 11
248.840000
 21
143.029000
 31
0.0
  0
LINE
  5
19c
100
AcDbEntity
  8
0
 62
1
100
AcDbLine
 10
248.840000
 20
143.029000
 30
0.0
 11
247.828000
 21
145.315000
 31
0.0
  0
LINE
  5
19d
100
AcDbEntity
  8
0
 62
1
100
AcDbLine
 10
247.828000
 20
145.315000
 30
0.0
 11
246.691000
 21
147.541000
 31
0.0
  0
LINE
  5
19e
100
AcDbEntity
  8
0
 62
1
100
AcDbLine
 10
246.691000
 20
147.541000
 30
0.0
 11
245.432000
 21
149.701000
 31
0.0
  0
LINE
  5
19f
100
AcDbEntity
  8
0
 62
1
100
AcDbLine
 10
245.432000
 20
149.701000
 30
0.0
 11
244.055000
 21
151.787000
 31
0.0
  0
LINE
  5
1a0
100
AcDbEntity
  8
0
 62
1
100
AcDbLine
 10
244.055000
 20
151.787000
 30
0.0
 11
242.565000
 21
153.794000
 31
0.0
  0
LINE
  5
1a1
100
AcDbEntity
  8
0
 62
1
100
AcDbLine
 10
242.565000
 20
153.794000
 30
0.0
 11
240.965000
 21
155.714000
 31
0.0
  0
LINE
  5
1a2
100
AcDbEntity
  8
0
 62
1
100
AcDbLine
 10
240.965000
 20
155.714000
 30
0.0
 11
239.261000
 21
157.543000
 31
0.0
  0
LINE
  5
1a3
100
AcDbEntity
  8
0
 62
1
100
AcDbLine
 10
239.261000
 20
157.543000
 30
0.0
 11
237.459000
 21
159.275000
 31
0.0
  0
LINE
  5
1a4
100
AcDbEntity
  8
0
 62
1
100
AcDbLine
 10
237.459000
 20
159.275000
 30
0.0
 11
235.562000
 21
160.904000
 31
0.0
  0
LINE
  5
1a5
100
AcDbEntity
  8
0
 62
1
100
AcDbLine
 10
235.562000
 20
160.904000
 30
0.0
 11
233.579000
 21
162.425000
 31
0.0
  0
LINE
  5
1a6
100
AcDbEntity
  8
0
 62
1
100
AcDbLine
 10
233.579000
 20
162.425000
 30
0.0
 11
231.514000
 21
163.833000
 31
0.0
  0
LINE
  5
1a7
100
AcDbEntity
  8
0
 62
1
100
AcDbLine
 10
231.514000
 20
163.833000
 30
0.0
 11
229.373000
 21
165.125000
 31
0.0
  0
LINE
  5
1a8
100
AcDbEntity
  8
0
 62
1
100
AcDbLine
 10
229.373000
 20
165.125000
 30
0.0
 11
227.165000
 21
166.296000
 31
0.0
  0
LINE
  5
1a9
100
AcDbEntity
  8
0
 62
1
100
AcDbLine
 10
227.165000
 20
166.296000
 30
0.0
 11
224.895000
 21
167.342000
 31
0.0
  0
LINE
  5
1aa
100
AcDbEntity
  8
0
 62
1
100
AcDbLine
 10
224.895000
 20
167.342000
 30
0.0
 11
222.570000
 21
168.261000
 31
0.0
  0
LINE
  5
1ab
100
AcDbEntity
  8
0
 62
1
100
AcDbLine
 10
222.570000
 20
168.261000
 30
0.0
 11
220.198000
 21
169.049000
 31
0.0
  0
LINE
  5
1ac
100
AcDbEntity
  8
0
 62
1
100
AcDbLine
 10
220.198000
 20
169.049000
 30
0.0
 11
217.786000
 21
169.704000
 31
0.0
  0
LINE
  5
1ad
100
AcDbEntity
  8
0
 62
1
100
AcDbLine
 10
217.786000
 20
169.704000
 30
0.0
 11
215.341000
 21
170.225000
 31
0.0
  0
LINE
  5
1ae
100
AcDbEntity
  8
0
 62
1
100
AcDbLine
 10
215.341000
 20
170.225000
 30
0.0
 11
212.871000
 21
170.608000
 31
0.0
  0
LINE
  5
1af
100
AcDbEntity
  8
0
 62
1
100
AcDbLine
 10
212.871000
 20
170.608000
 30
0.0
 11
210.383000
 21
170.854000
 31
0.0
  0
LINE
  5
1b0
100
AcDbEntity
  8
0
 62
1
100
AcDbLine
 10
210.383000
 20
170.854000
 30
0.0
 11
207.886000
 21
170.962000
 31
0.0
  0
LINE
  5
1b1
100
AcDbEntity
  8
0
 62
1
100
AcDbLine
 10
207.886000
 20
170.962000
 30
0.0
 11
207.200000
 21
170.967000
 31
0.0
  0
LINE
  5
1b2
100
AcDbEntity
  8
0
 62
1
100
AcDbLine
 10
465.400000
 20
170.967000
 30
0.0
 11
443.597000
 21
170.967000
 31
0.0
  0
LINE
  5
1b3
100
AcDbEntity
  8
0
 62
1
100
AcDbLine
 10
443.597000
 20
170.967000
 30
0.0
 11
443.597000
 21
173.967000
 31
0.0
  0
LINE
  5
1b4
100
AcDbEntity
  8
0
 62
1
100
AcDbLine
 10
443.597000
 20
173.967000
 30
0.0
 11
430.753000
 21
173.967000
 31
0.0
  0
LINE
  5
1b5
100
AcDbEntity
  8
0
 62
1
100
AcDbLine
 10
430.753000
 20
173.967000
 30
0.0
 11
430.753000
 21
170.967000
 31
0.0
  0
LINE
  5
1b6
100
AcDbEntity
  8
0
 62
1
100
AcDbLine
 10
430.753000
 20
170.967000
 30
0.0
 11
417.909000
 21
170.967000
 31
0.0
  0
LINE
  5
1b7
100
AcDbEntity
  8
0
 62
1
100
AcDbLine
 10
417.909000
 20
170.967000
 30
0.0
 11
417.909000
 21
173.967000
 31
0.0
  0
LINE
  5
1b8
100
AcDbEntity
  8
0
 62
1
100
AcDbLine
 10
417.909000
 20
173.967000
 30
0.0
 11
405.066000
 21
173.967000
 31
0.0
  0
LINE
  5
1b9
100
AcDbEntity
  8
0
 62
1
100
AcDbLine
 10
405.066000
 20
173.967000
 30
0.0
 11
405.066000
 21
170.967000
 31
0.0
  0
LINE
  5
1ba
100
AcDbEntity
  8
0
 62
1
100
AcDbLine
 10
405.066000
 20
170.967000
 30
0.0
 11
392.222000
 21
170.967000
 31
0.0
  0
LINE
  5
1bb
100
AcDbEntity
  8
0
 62
1
100
AcDbLine
 10
392.222000
 20
170.967000
 30
0.0
 11
392.222000
 21
173.967000
 31
0.0
  0
LINE
  5
1bc
100
AcDbEntity
  8
0
 62
1
100
AcDbLine
 10
392.222000
 20
173.967000
 30
0.0
 11
379.378000
 21
173.967000
 31
0.0
  0
LINE
  5
1bd
100
AcDbEntity
  8
0
 62
1
100
AcDbLine
 10
379.378000
 20
173.967000
 30
0.0
 11
379.378000
 21
170.967000
 31
0.0
  0
LINE
  5
1be
100
AcDbEntity
  8
0
 62
1
100
AcDbLine
 10
379.378000
 20
170.967000
 30
0.0
 11
366.534000
 21
170.967000
 31
0.0
  0
LINE
  5
1bf
100
AcDbEntity
  8
0
 62
1
100
AcDbLine
 10
366.534000
 20
170.967000
 30
0.0
 11
366.534000
 21
173.967000
 31
0.0
  0
LINE
  5
1c0
100
AcDbEntity
  8
0
 62
1
100
AcDbLine
 10
366.534000
 20
173.967000
 30
0.0
 11
353.691000
 21
173.967000
 31
0.0
  0
LINE
  5
1c1
100
AcDbEntity
  8
0
 62
1
100
AcDbLine
 10
353.691000
 20
173.967000
 30
0.0
 11
353.691000
 21
170.967000
 31
0.0
  0
LINE
  5
1c2
100
AcDbEntity
  8
0
 62
1
100
AcDbLine
 10
353.691000
 20
170.967000
 30
0.0
 11
340.847000
 21
170.967000
 31
0.0
  0
LINE
  5
1c3
100
AcDbEntity
  8
0
 62
1
100
AcDbLine
 10
340.847000
 20
170.967000
 30
0.0
 11
340.847000
 21
173.967000
 31
0.0
  0
LINE
  5
1c4
100
AcDbEntity
  8
0
 62
1
100
AcDbLine
 10
340.847000
 20
173.967000
 30
0.0
 11
328.003000
 21
173.967000
 31
0.0
  0
LINE
  5
1c5
100
AcDbEntity
  8
0
 62
1
100
AcDbLine
 10
328.003000
 20
173.967000
 30
0.0
 11
328.003000
 21
170.967000
 31
0.0
  0
LINE
  5
1c6
100
AcDbEntity
  8
0
 62
1
100
AcDbLine
 10
328.003000
 20
170.967000
 30
0.0
 11
315.159000
 21
170.967000
 31
0.0
  0
LINE
  5
1c7
100
AcDbEntity
  8
0
 62
1
100
AcDbLine
 10
315.159000
 20
170.967000
 30
0.0
 11
306.200000
 21
170.967000
 31
0.0
  0
LINE
  5
1c8
100
AcDbEntity
  8
0
 62
1
100
AcDbLine
 10
306.200000
 20
170.967000
 30
0.0
 11
303.701000
 21
170.898000
 31
0.0
  0
LINE
  5
1c9
100
AcDbEntity
  8
0
 62
1
100
AcDbLine
 10
303.701000
 20
170.898000
 30
0.0
 11
301.210000
 21
170.690000
 31
0.0
  0
LINE
  5
1ca
100
AcDbEntity
  8
0
 62
1
100
AcDbLine
 10
301.210000
 20
170.690000
 30
0.0
 11
298.735000
 21
170.343000
 31
0.0
  0
LINE
  5
1cb
100
AcDbEntity
  8
0
 62
1
100
AcDbLine
 10
298.735000
 20
170.343000
 30
0.0
 11
296.282000
 21
169.860000
 31
0.0
  0
LINE
  5
1cc
100
AcDbEntity
  8
0
 62
1
100
AcDbLine
 10
296.282000
 20
169.860000
 30
0.0
 11
293.860000
 21
169.242000
 31
0.0
  0
LINE
  5
1cd
100
AcDbEntity
  8
0
 62
1
100
AcDbLine
 10
293.860000
 20
169.242000
 30
0.0
 11
291.476000
 21
168.490000
 31
0.0
  0
LINE
  5
1ce
100
AcDbEntity
  8
0
 62
1
100
AcDbLine
 10
291.476000
 20
168.490000
 30
0.0
 11
289.138000
 21
167.607000
 31
0.0
  0
LINE
  5
1cf
100
AcDbEntity
  8
0
 62
1
100
AcDbLine
 10
289.138000
 20
167.607000
 30
0.0
 11
286.852000
 21
166.595000
 31
0.0
  0
LINE
  5
1d0
100
AcDbEntity
  8
0
 62
1
100
AcDbLine
 10
286.852000
 20
166.595000
 30
0.0
 11
284.626000
 21
165.458000
 31
0.0
  0
LINE
  5
1d1
100
AcDbEntity
  8
0
 62
1
100
AcDbLine
 10
284.626000
 20
165.458000
 30
0.0
 11
282.466000
 21
164.199000
 31
0.0
  0
LINE
  5
1d2
100
AcDbEntity
  8
0
 62
1
100
AcDbLine
 10
282.466000
 20
164.199000
 30
0.0
 11
280.380000
 21
162.822000
 31
0.0
  0
LINE
  5
1d3
100
AcDbEntity
  8
0
 62
1
100
AcDbLine
 10
280.380000
 20
162.822000
 30
0.0
 11
278.373000
 21
161.332000
 31
0.0
  0
LINE
  5
1d4
100
AcDbEntity
  8
0
 62
1
100
AcDbLine
 10
278.373000
 20
161.332000
 30
0.0
 11
276.453000
 21
159.732000
 31
0.0
  0
LINE
  5
1d5
100
AcDbEntity
  8
0
 62
1
100
AcDbLine
 10
276.453000
 20
159.732000
 30
0.0
 11
274.624000
 21
158.028000
 31
0.0
  0
LINE
  5
1d6
100
AcDbEntity
  8
0
 62
1
100
AcDbLine
 10
274.624000
 20
158.028000
 30
0.0
 11
272.892000
 21
156.226000
 31
0.0
  0
LINE
  5
1d7
100
AcDbEntity
  8
0
 62
1
100
AcDbLine
 10
272.892000
 20
156.226000
 30
0.0
 11
271.263000
 21
154.329000
 31
0.0
  0
LINE
  5
1d8
100
AcDbEntity
  8
0
 62
1
100
AcDbLine
 10
271.263000
 20
154.329000
 30
0.0
 11
269.742000
 21
152.346000
 31
0.0
  0
LINE
  5
1d9
100
AcDbEntity
  8
0
 62
1
100
AcDbLine
 10
269.742000
 20
152.346000
 30
0.0
 11
268.334000
 21
150.281000
 31
0.0
  0
LINE
  5
1da
100
AcDbEntity
  8
0
 62
1
100
AcDbLine
 10
268.334000
 20
150.281000
 30
0.0
 11
267.042000
 21
148.140000
 31
0.0
  0
LINE
  5
1db
100
AcDbEntity
  8
0
 62
1
100
AcDbLine
 10
267.042000
 20
148.140000
 30
0.0
 11
265.871000
 21
145.932000
 31
0.0
  0
LINE
  5
1dc
100
AcDbEntity
  8
0
 62
1
100
AcDbLine
 10
265.871000
 20
145.932000
 30
0.0
 11
264.825000
 21
143.662000
 31
0.0
  0
LINE
  5
1dd
100
AcDbEntity
  8
0
 62
1
100
AcDbLine
 10
264.825000
 20
143.662000
 30
0.0
 11
263.906000
 21
141.337000
 31
0.0
  0
LINE
  5
1de
100
AcDbEntity
  8
0
 62
1
100
AcDbLine
 10
263.906000
 20
141.337000
 30
0.0
 11
263.118000
 21
138.965000
 31
0.0
  0
LINE
  5
1df
100
AcDbEntity
  8
0
 62
1
100
AcDbLine
 10
263.118000
 20
138.965000
 30
0.0
 11
262.463000
 21
136.553000
 31
0.0
  0
LINE
  5
1e0
100
AcDbEntity
  8
0
 62
1
100
AcDbLine
 10
262.463000
 20
136.553000
 30
0.0
 11
261.942000
 21
134.108000
 31
0.0
  0
LINE
  5
1e1
100
AcDbEntity
  8
0
 62
1
100
AcDbLine
 10
261.942000
 20
134.108000
 30
0.0
 11
261.559000
 21
131.638000
 31
0.0
  0
LINE
  5
1e2
100
AcDbEntity
  8
0
 62
1
100
AcDbLine
 10
261.559000
 20
131.638000
 30
0.0
 11
261.313000
 21
129.150000
 31
0.0
  0
LINE
  5
1e3
100
AcDbEntity
  8
0
 62
1
100
AcDbLine
 10
261.313000
 20
129.150000
 30
0.0
 11
261.205000
 21
126.653000
 31
0.0
  0
LINE
  5
1e4
100
AcDbEntity
  8
0
 62
1
100
AcDbLine
 10
261.205000
 20
126.653000
 30
0.0
 11
261.200000
 21
125.967000
 31
0.0
  0
LINE
  5
1e5
100
AcDbEntity
  8
0
 62
1
100
AcDbLine
 10
261.200000
 20
125.967000
 30
0.0
 11
261.200000
 21
106.249000
 31
0.0
  0
LINE
  5
1e6
100
AcDbEntity
  8
0
 62
1
100
AcDbLine
 10
261.200000
 20
106.249000
 30
0.0
 11
258.200000
 21
106.249000
 31
0.0
  0
LINE
  5
1e7
100
AcDbEntity
  8
0
 62
1
100
AcDbLine
 10
258.200000
 20
106.249000
 30
0.0
 11
258.200000
 21
93.405000
 31
0.0
  0
LINE
  5
1e8
100
AcDbEntity
  8
0
 62
1
100
AcDbLine
 10
258.200000
 20
93.405000
 30
0.0
 11
261.200000
 21
93.405000
 31
0.0
  0
LINE
  5
1e9
100
AcDbEntity
  8
0
 62
1
100
AcDbLine
 10
261.200000
 20
93.405000
 30
0.0
 11
261.200000
 21
80.561000
 31
0.0
  0
LINE
  5
1ea
100
AcDbEntity
  8
0
 62
1
100
AcDbLine
 10
261.200000
 20
80.561000
 30
0.0
 11
258.200000
 21
80.561000
 31
0.0
  0
LINE
  5
1eb
100
AcDbEntity
  8
0
 62
1
100
AcDbLine
 10
258.200000
 20
80.561000
 30
0.0
 11
258.200000
 21
67.718000
 31
0.0
  0
LINE
  5
1ec
100
AcDbEntity
  8
0
 62
1
100
AcDbLine
 10
258.200000
 20
67.718000
 30
0.0
 11
261.200000
 21
67.718000
 31
0.0
  0
LINE
  5
1ed
100
AcDbEntity
  8
0
 62
1
100
AcDbLine
 10
261.200000
 20
67.718000
 30
0.0
 11
261.200000
 21
54.874000
 31
0.0
  0
LINE
  5
1ee
100
AcDbEntity
  8
0
 62
1
100
AcDbLine
 10
261.200000
 20
54.874000
 30
0.0
 11
261.200000
 21
48.000000
 31
0.0
  0
LINE
  5
1ef
100
AcDbEntity
  8
0
 62
1
100
AcDbLine
 10
261.200000
 20
48.000000
 30
0.0
 11
261.269000
 21
45.501000
 31
0.0
  0
LINE
  5
1f0
100
AcDbEntity
  8
0
 62
1
100
AcDbLine
 10
261.269000
 20
45.501000
 30
0.0
 11
261.477000
 21
43.010000
 31
0.0
  0
LINE
  5
1f1
100
AcDbEntity
  8
0
 62
1
100
AcDbLine
 10
261.477000
 20
43.010000
 30
0.0
 11
261.824000
 21
40.534000
 31
0.0
  0
LINE
  5
1f2
100
AcDbEntity
  8
0
 62
1
100
AcDbLine
 10
261.824000
 20
40.534000
 30
0.0
 11
262.307000
 21
38.082000
 31
0.0
  0
LINE
  5
1f3
100
AcDbEntity
  8
0
 62
1
100
AcDbLine
 10
262.307000
 20
38.082000
 30
0.0
 11
262.925000
 21
35.660000
 31
0.0
  0
LINE
  5
1f4
100
AcDbEntity
  8
0
 62
1
100
AcDbLine
 10
262.925000
 20
35.660000
 30
0.0
 11
263.677000
 21
33.276000
 31
0.0
  0
LINE
  5
1f5
100
AcDbEntity
  8
0
 62
1
100
AcDbLine
 10
263.677000
 20
33.276000
 30
0.0
 11
264.560000
 21
30.937000
 31
0.0
  0
LINE
  5
1f6
100
AcDbEntity
  8
0
 62
1
100
AcDbLine
 10
264.560000
 20
30.937000
 30
0.0
 11
265.572000
 21
28.652000
 31
0.0
  0
LINE
  5
1f7
100
AcDbEntity
  8
0
 62
1
100
AcDbLine
 10
265.572000
 20
28.652000
 30
0.0
 11
266.709000
 21
26.426000
 31
0.0
  0
LINE
  5
1f8
100
AcDbEntity
  8
0
 62
1
100
AcDbLine
 10
266.709000
 20
26.426000
 30
0.0
 11
267.968000
 21
24.266000
 31
0.0
  0
LINE
  5
1f9
100
AcDbEntity
  8
0
 62
1
100
AcDbLine
 10
267.968000
 20
24.266000
 30
0.0
 11
269.344000
 21
22.180000
 31
0.0
  0
LINE
  5
1fa
100
AcDbEntity
  8
0
 62
1
100
AcDbLine
 10
269.344000
 20
22.180000
 30
0.0
 11
270.835000
 21
20.173000
 31
0.0
  0
LINE
  5
1fb
100
AcDbEntity
  8
0
 62
1
100
AcDbLine
 10
270.835000
 20
20.173000
 30
0.0
 11
272.435000
 21
18.252000
 31
0.0
  0
LINE
  5
1fc
100
AcDbEntity
  8
0
 62
1
100
AcDbLine
 10
272.435000
 20
18.252000
 30
0.0
 11
274.139000
 21
16.423000
 31
0.0
  0
LINE
  5
1fd
100
AcDbEntity
  8
0
 62
1
100
AcDbLine
 10
274.139000
 20
16.423000
 30
0.0
 11
275.941000
 21
14.692000
 31
0.0
  0
LINE
  5
1fe
100
AcDbEntity
  8
0
 62
1
100
AcDbLine
 10
275.941000
 20
14.692000
 30
0.0
 11
277.838000
 21
13.063000
 31
0.0
  0
LINE
  5
1ff
100
AcDbEntity
  8
0
 62
1
100
AcDbLine
 10
277.838000
 20
13.063000
 30
0.0
 11
279.821000
 21
11.542000
 31
0.0
  0
LINE
  5
200
100
AcDbEntity
  8
0
 62
1
100
AcDbLine
 10
279.821000
 20
11.542000
 30
0.0
 11
281.886000
 21
10.133000
 31
0.0
  0
LINE
  5
201
100
AcDbEntity
  8
0
 62
1
100
AcDbLine
 10
281.886000
 20
10.133000
 30
0.0
 11
284.026000
 21
8.842000
 31
0.0
  0
LINE
  5
202
100
AcDbEntity
  8
0
 62
1
100
AcDbLine
 10
284.026000
 20
8.842000
 30
0.0
 11
286.235000
 21
7.671000
 31
0.0
  0
LINE
  5
203
100
AcDbEntity
  8
0
 62
1
100
AcDbLine
 10
286.235000
 20
7.671000
 30
0.0
 11
288.505000
 21
6.625000
 31
0.0
  0
LINE
  5
204
100
AcDbEntity
  8
0
 62
1
100
AcDbLine
 10
288.505000
 20
6.625000
 30
0.0
 11
290.830000
 21
5.706000
 31
0.0
  0
LINE
  5
205
100
AcDbEntity
  8
0
 62
1
100
AcDbLine
 10
290.830000
 20
5.706000
 30
0.0
 11
293.202000
 21
4.918000
 31
0.0
  0
LINE
  5
206
100
AcDbEntity
  8
0
 62
1
100
AcDbLine
 10
293.202000
 20
4.918000
 30
0.0
 11
295.614000
 21
4.262000
 31
0.0
  0
LINE
  5
207
100
AcDbEntity
  8
0
 62
1
100
AcDbLine
 10
295.614000
 20
4.262000
 30
0.0
 11
298.059000
 21
3.742000
 31
0.0
  0
LINE
  5
208
100
AcDbEntity
  8
0
 62
1
100
AcDbLine
 10
298.059000
 20
3.742000
 30
0.0
 11
300.529000
 21
3.358000
 31
0.0
  0
LINE
  5
209
100
AcDbEntity
  8
0
 62
1
100
AcDbLine
 10
300.529000
 20
3.358000
 30
0.0
 11
303.017000
 21
3.112000
 31
0.0
  0
LINE
  5
20a
100
AcDbEntity
  8
0
 62
1
100
AcDbLine
 10
303.017000
 20
3.112000
 30
0.0
 11
305.514000
 21
3.005000
 31
0.0
  0
LINE
  5
20b
100
AcDbEntity
  8
0
 62
1
100
AcDbLine
 10
305.514000
 20
3.005000
 30
0.0
 11
306.200000
 21
3.000000
 31
0.0
  0
LINE
  5
20c
100
AcDbEntity
  8
0
 62
1
100
AcDbLine
 10
306.200000
 20
3.000000
 30
0.0
 11
326.734000
 21
3.000000
 31
0.0
  0
LINE
  5
20d
100
AcDbEntity
  8
0
 62
1
100
AcDbLine
 10
326.734000
 20
3.000000
 30
0.0
 11
326.734000
 21
-0.000000
 31
0.0
  0
LINE
  5
20e
100
AcDbEntity
  8
0
 62
1
100
AcDbLine
 10
326.734000
 20
-0.000000
 30
0.0
 11
339.578000
 21
-0.000000
 31
0.0
  0
LINE
  5
20f
100
AcDbEntity
  8
0
 62
1
100
AcDbLine
 10
339.578000
 20
-0.000000
 30
0.0
 11
339.578000
 21
3.000000
 31
0.0
  0
LINE
  5
210
100
AcDbEntity
  8
0
 62
1
100
AcDbLine
 10
339.578000
 20
3.000000
 30
0.0
 11
352.422000
 21
3.000000
 31
0.0
  0
LINE
  5
211
100
AcDbEntity
  8
0
 62
1
100
AcDbLine
 10
352.422000
 20
3.000000
 30
0.0
 11
352.422000
 21
-0.000000
 31
0.0
  0
LINE
  5
212
100
AcDbEntity
  8
0
 62
1
100
AcDbLine
 10
352.422000
 20
-0.000000
 30
0.0
 11
365.266000
 21
-0.000000
 31
0.0
  0
LINE
  5
213
100
AcDbEntity
  8
0
 62
1
100
AcDbLine
 10
365.266000
 20
-0.000000
 30
0.0
 11
365.266000
 21
3.000000
 31
0.0
  0
LINE
  5
214
100
AcDbEntity
  8
0
 62
1
100
AcDbLine
 10
365.266000
 20
3.000000
 30
0.0
 11
378.109000
 21
3.000000
 31
0.0
  0
LINE
  5
215
100
AcDbEntity
  8
0
 62
1
100
AcDbLine
 10
378.109000
 20
3.000000
 30
0.0
 11
385.800000
 21
3.000000
 31
0.0
  0
LINE
  5
216
100
AcDbEntity
  8
0
 62
1
100
AcDbLine
 10
385.800000
 20
3.000000
 30
0.0
 11
406.334000
 21
3.000000
 31
0.0
  0
LINE
  5
217
100
AcDbEntity
  8
0
 62
1
100
AcDbLine
 10
406.334000
 20
3.000000
 30
0.0
 11
406.334000
 21
-0.000000
 31
0.0
  0
LINE
  5
218
100
AcDbEntity
  8
0
 62
1
100
AcDbLine
 10
406.334000
 20
-0.000000
 30
0.0
 11
419.178000
 21
-0.000000
 31
0.0
  0
LINE
  5
219
100
AcDbEntity
  8
0
 62
1
100
AcDbLine
 10
419.178000
 20
-0.000000
 30
0.0
 11
419.178000
 21
3.000000
 31
0.0
  0
LINE
  5
21a
100
AcDbEntity
  8
0
 62
1
100
AcDbLine
 10
419.178000
 20
3.000000
 30
0.0
 11
432.022000
 21
3.000000
 31
0.0
  0
LINE
  5
21b
100
AcDbEntity
  8
0
 62
1
100
AcDbLine
 10
432.022000
 20
3.000000
 30
0.0
 11
432.022000
 21
-0.000000
 31
0.0
  0
LINE
  5
21c
100
AcDbEntity
  8
0
 62
1
100
AcDbLine
 10
432.022000
 20
-0.000000
 30
0.0
 11
444.866000
 21
-0.000000
 31
0.0
  0
LINE
  5
21d
100
AcDbEntity
  8
0
 62
1
100
AcDbLine
 10
444.866000
 20
-0.000000
 30
0.0
 11
444.866000
 21
3.000000
 31
0.0
  0
LINE
  5
21e
100
AcDbEntity
  8
0
 62
1
100
AcDbLine
 10
444.866000
 20
3.000000
 30
0.0
 11
457.709000
 21
3.000000
 31
0.0
  0
LINE
  5
21f
100
AcDbEntity
  8
0
 62
1
100
AcDbLine
 10
457.709000
 20
3.000000
 30
0.0
 11
465.400000
 21
3.000000
 31
0.0
  0
LINE
  5
220
100
AcDbEntity
  8
0
 62
1
100
AcDbLine
 10
465.400000
 20
3.000000
 30
0.0
 11
467.899000
 21
3.069000
 31
0.0
  0
LINE
  5
221
100
AcDbEntity
  8
0
 62
1
100
AcDbLine
 10
467.899000
 20
3.069000
 30
0.0
 11
470.390000
 21
3.277000
 31
0.0
  0
LINE
  5
222
100
AcDbEntity
  8
0
 62
1
100
AcDbLine
 10
470.390000
 20
3.277000
 30
0.0
 11
472.865000
 21
3.623000
 31
0.0
  0
LINE
  5
223
100
AcDbEntity
  8
0
 62
1
100
AcDbLine
 10
472.865000
 20
3.623000
 30
0.0
 11
475.318000
 21
4.106000
 31
0.0
  0
LINE
  5
224
100
AcDbEntity
  8
0
 62
1
100
AcDbLine
 10
475.318000
 20
4.106000
 30
0.0
 11
477.740000
 21
4.725000
 31
0.0
  0
LINE
  5
225
100
AcDbEntity
  8
0
 62
1
100
AcDbLine
 10
477.740000
 20
4.725000
 30
0.0
 11
480.124000
 21
5.477000
 31
0.0
  0
LINE
  5
226
100
AcDbEntity
  8
0
 62
1
100
AcDbLine
 10
480.124000
 20
5.477000
 30
0.0
 11
482.462000
 21
6.360000
 31
0.0
  0
LINE
  5
227
100
AcDbEntity
  8
0
 62
1
100
AcDbLine
 10
482.462000
 20
6.360000
 30
0.0
 11
484.748000
 21
7.371000
 31
0.0
  0
LINE
  5
228
100
AcDbEntity
  8
0
 62
1
100
AcDbLine
 10
484.748000
 20
7.371000
 30
0.0
 11
486.974000
 21
8.508000
 31
0.0
  0
LINE
  5
229
100
AcDbEntity
  8
0
 62
1
100
AcDbLine
 10
486.974000
 20
8.508000
 30
0.0
 11
489.134000
 21
9.767000
 31
0.0
  0
LINE
  5
22a
100
AcDbEntity
  8
0
 62
1
100
AcDbLine
 10
489.134000
 20
9.767000
 30
0.0
 11
491.220000
 21
11.144000
 31
0.0
  0
LINE
  5
22b
100
AcDbEntity
  8
0
 62
1
100
AcDbLine
 10
491.220000
 20
11.144000
 30
0.0
 11
493.227000
 21
12.635000
 31
0.0
  0
LINE
  5
22c
100
AcDbEntity
  8
0
 62
1
100
AcDbLine
 10
493.227000
 20
12.635000
 30
0.0
 11
495.147000
 21
14.234000
 31
0.0
  0
LINE
  5
22d
100
AcDbEntity
  8
0
 62
1
100
AcDbLine
 10
495.147000
 20
14.234000
 30
0.0
 11
496.976000
 21
15.938000
 31
0.0
  0
LINE
  5
22e
100
AcDbEntity
  8
0
 62
1
100
AcDbLine
 10
496.976000
 20
15.938000
 30
0.0
 11
498.708000
 21
17.741000
 31
0.0
  0
LINE
  5
22f
100
AcDbEntity
  8
0
 62
1
100
AcDbLine
 10
498.708000
 20
17.741000
 30
0.0
 11
500.337000
 21
19.637000
 31
0.0
  0
LINE
  5
230
100
AcDbEntity
  8
0
 62
1
100
AcDbLine
 10
500.337000
 20
19.637000
 30
0.0
 11
501.858000
 21
21.621000
 31
0.0
  0
LINE
  5
231
100
AcDbEntity
  8
0
 62
1
100
AcDbLine
 10
501.858000
 20
21.621000
 30
0.0
 11
503.266000
 21
23.686000
 31
0.0
  0
LINE
  5
232
100
AcDbEntity
  8
0
 62
1
100
AcDbLine
 10
503.266000
 20
23.686000
 30
0.0
 11
504.558000
 21
25.826000
 31
0.0
  0
LINE
  5
233
100
AcDbEntity
  8
0
 62
1
100
AcDbLine
 10
504.558000
 20
25.826000
 30
0.0
 11
505.729000
 21
28.035000
 31
0.0
  0
LINE
  5
234
100
AcDbEntity
  8
0
 62
1
100
AcDbLine
 10
505.729000
 20
28.035000
 30
0.0
 11
506.775000
 21
30.305000
 31
0.0
  0
LINE
  5
235
100
AcDbEntity
  8
0
 62
1
100
AcDbLine
 10
506.775000
 20
30.305000
 30
0.0
 11
507.694000
 21
32.630000
 31
0.0
  0
LINE
  5
236
100
AcDbEntity
  8
0
 62
1
100
AcDbLine
 10
507.694000
 20
32.630000
 30
0.0
 11
508.482000
 21
35.002000
 31
0.0
  0
LINE
  5
237
100
AcDbEntity
  8
0
 62
1
100
AcDbLine
 10
508.482000
 20
35.002000
 30
0.0
 11
509.137000
 21
37.414000
 31
0.0
  0
LINE
  5
238
100
AcDbEntity
  8
0
 62
1
100
AcDbLine
 10
509.137000
 20
37.414000
 30
0.0
 11
509.657000
 21
39.859000
 31
0.0
  0
LINE
  5
239
100
AcDbEntity
  8
0
 62
1
100
AcDbLine
 10
509.657000
 20
39.859000
 30
0.0
 11
510.041000
 21
42.329000
 31
0.0
  0
LINE
  5
23a
100
AcDbEntity
  8
0
 62
1
100
AcDbLine
 10
510.041000
 20
42.329000
 30
0.0
 11
510.287000
 21
44.816000
 31
0.0
  0
LINE
  5
23b
100
AcDbEntity
  8
0
 62
1
100
AcDbLine
 10
510.287000
 20
44.816000
 30
0.0
 11
510.395000
 21
47.314000
 31
0.0
  0
LINE
  5
23c
100
AcDbEntity
  8
0
 62
1
100
AcDbLine
 10
510.395000
 20
47.314000
 30
0.0
 11
510.400000
 21
48.000000
 31
0.0
  0
LINE
  5
23d
100
AcDbEntity
  8
0
 62
1
100
AcDbLine
 10
510.400000
 20
48.000000
 30
0.0
 11
510.400000
 21
67.718000
 31
0.0
  0
LINE
  5
23e
100
AcDbEntity
  8
0
 62
1
100
AcDbLine
 10
510.400000
 20
67.718000
 30
0.0
 11
513.400000
 21
67.718000
 31
0.0
  0
LINE
  5
23f
100
AcDbEntity
  8
0
 62
1
100
AcDbLine
 10
513.400000
 20
67.718000
 30
0.0
 11
513.400000
 21
80.561000
 31
0.0
  0
LINE
  5
240
100
AcDbEntity
  8
0
 62
1
100
AcDbLine
 10
513.400000
 20
80.561000
 30
0.0
 11
510.400000
 21
80.561000
 31
0.0
  0
LINE
  5
241
100
AcDbEntity
  8
0
 62
1
100
AcDbLine
 10
510.400000
 20
80.561000
 30
0.0
 11
510.400000
 21
93.405000
 31
0.0
  0
LINE
  5
242
100
AcDbEntity
  8
0
 62
1
100
AcDbLine
 10
510.400000
 20
93.405000
 30
0.0
 11
513.400000
 21
93.405000
 31
0.0
  0
LINE
  5
243
100
AcDbEntity
  8
0
 62
1
100
AcDbLine
 10
513.400000
 20
93.405000
 30
0.0
 11
513.400000
 21
106.249000
 31
0.0
  0
LINE
  5
244
100
AcDbEntity
  8
0
 62
1
100
AcDbLine
 10
513.400000
 20
106.249000
 30
0.0
 11
510.400000
 21
106.249000
 31
0.0
  0
LINE
  5
245
100
AcDbEntity
  8
0
 62
1
100
AcDbLine
 10
510.400000
 20
106.249000
 30
0.0
 11
510.400000
 21
119.093000
 31
0.0
  0
LINE
  5
246
100
AcDbEntity
  8
0
 62
1
100
AcDbLine
 10
510.400000
 20
119.093000
 30
0.0
 11
510.400000
 21
125.967000
 31
0.0
  0
LINE
  5
247
100
AcDbEntity
  8
0
 62
1
100
AcDbLine
 10
510.400000
 20
125.967000
 30
0.0
 11
510.331000
 21
128.466000
 31
0.0
  0
LINE
  5
248
100
AcDbEntity
  8
0
 62
1
100
AcDbLine
 10
510.331000
 20
128.466000
 30
0.0
 11
510.122000
 21
130.957000
 31
0.0
  0
LINE
  5
249
100
AcDbEntity
  8
0
 62
1
100
AcDbLine
 10
510.122000
 20
130.957000
 30
0.0
 11
509.776000
 21
133.432000
 31
0.0
  0
LINE
  5
24a
100
AcDbEntity
  8
0
 62
1
100
AcDbLine
 10
509.776000
 20
133.432000
 30
0.0
 11
509.293000
 21
135.885000
 31
0.0
  0
LINE
  5
24b
100
AcDbEntity
  8
0
 62
1
100
AcDbLine
 10
509.293000
 20
135.885000
 30
0.0
 11
508.675000
 21
138.307000
 31
0.0
  0
LINE
  5
24c
100
AcDbEntity
  8
0
 62
1
100
AcDbLine
 10
508.675000
 20
138.307000
 30
0.0
 11
507.923000
 21
140.691000
 31
0.0
  0
LINE
  5
24d
100
AcDbEntity
  8
0
 62
1
100
AcDbLine
 10
507.923000
 20
140.691000
 30
0.0
 11
507.040000
 21
143.029000
 31
0.0
  0
LINE
  5
24e
100
AcDbEntity
  8
0
 62
1
100
AcDbLine
 10
507.040000
 20
143.029000
 30
0.0
 11
506.028000
 21
145.315000
 31
0.0
  0
LINE
  5
24f
100
AcDbEntity
  8
0
 62
1
100
AcDbLine
 10
506.028000
 20
145.315000
 30
0.0
 11
504.891000
 21
147.541000
 31
0.0
  0
LINE
  5
250
100
AcDbEntity
  8
0
 62
1
100
AcDbLine
 10
504.891000
 20
147.541000
 30
0.0
 11
503.632000
 21
149.701000
 31
0.0
  0
LINE
  5
251
100
AcDbEntity
  8
0
 62
1
100
AcDbLine
 10
503.632000
 20
149.701000
 30
0.0
 11
502.255000
 21
151.787000
 31
0.0
  0
LINE
  5
252
100
AcDbEntity
  8
0
 62
1
100
AcDbLine
 10
502.255000
 20
151.787000
 30
0.0
 11
500.765000
 21
153.794000
 31
0.0
  0
LINE
  5
253
100
AcDbEntity
  8
0
 62
1
100
AcDbLine
 10
500.765000
 20
153.794000
 30
0.0
 11
499.165000
 21
155.714000
 31
0.0
  0
LINE
  5
254
100
AcDbEntity
  8
0
 62
1
100
AcDbLine
 10
499.165000
 20
155.714000
 30
0.0
 11
497.461000
 21
157.543000
 31
0.0
  0
LINE
  5
255
100
AcDbEntity
  8
0
 62
1
100
AcDbLine
 10
497.461000
 20
157.543000
 30
0.0
 11
495.658000
 21
159.275000
 31
0.0
  0
LINE
  5
256
100
AcDbEntity
  8
0
 62
1
100
AcDbLine
 10
495.658000
 20
159.275000
 30
0.0
 11
493.762000
 21
160.904000
 31
0.0
  0
LINE
  5
257
100
AcDbEntity
  8
0
 62
1
100
AcDbLine
 10
493.762000
 20
160.904000
 30
0.0
 11
491.779000
 21
162.425000
 31
0.0
  0
LINE
  5
258
100
AcDbEntity
  8
0
 62
1
100
AcDbLine
 10
491.779000
 20
162.425000
 30
0.0
 11
489.714000
 21
163.833000
 31
0.0
  0
LINE
  5
259
100
AcDbEntity
  8
0
 62
1
100
AcDbLine
 10
489.714000
 20
163.833000
 30
0.0
 11
487.573000
 21
165.125000
 31
0.0
  0
LINE
  5
25a
100
AcDbEntity
  8
0
 62
1
100
AcDbLine
 10
487.573000
 20
165.125000
 30
0.0
 11
485.365000
 21
166.296000
 31
0.0
  0
LINE
  5
25b
100
AcDbEntity
  8
0
 62
1
100
AcDbLine
 10
485.365000
 20
166.296000
 30
0.0
 11
483.095000
 21
167.342000
 31
0.0
  0
LINE
  5
25c
100
AcDbEntity
  8
0
 62
1
100
AcDbLine
 10
483.095000
 20
167.342000
 30
0.0
 11
480.770000
 21
168.261000
 31
0.0
  0
LINE
  5
25d
100
AcDbEntity
  8
0
 62
1
100
AcDbLine
 10
480.770000
 20
168.261000
 30
0.0
 11
478.398000
 21
169.049000
 31
0.0
  0
LINE
  5
25e
100
AcDbEntity
  8
0
 62
1
100
AcDbLine
 10
478.398000
 20
169.049000
 30
0.0
 11
475.986000
 21
169.704000
 31
0.0
  0
LINE
  5
25f
100
AcDbEntity
  8
0
 62
1
100
AcDbLine
 10
475.986000
 20
169.704000
 30
0.0
 11
473.541000
 21
170.225000
 31
0.0
  0
LINE
  5
260
100
AcDbEntity
  8
0
 62
1
100
AcDbLine
 10
473.541000
 20
170.225000
 30
0.0
 11
471.071000
 21
170.608000
 31
0.0
  0
LINE
  5
261
100
AcDbEntity
  8
0
 62
1
100
AcDbLine
 10
471.071000
 20
170.608000
 30
0.0
 11
468.583000
 21
170.854000
 31
0.0
  0
LINE
  5
262
100
AcDbEntity
  8
0
 62
1
100
AcDbLine
 10
468.583000
 20
170.854000
 30
0.0
 11
466.086000
 21
170.962000
 31
0.0
  0
LINE
  5
263
100
AcDbEntity
  8
0
 62
1
100
AcDbLine
 10
466.086000
 20
170.962000
 30
0.0
 11
465.400000
 21
170.967000
 31
0.0
  0
LINE
  5
264
100
AcDbEntity
  8
0
 62
5
100
AcDbLine
 10
79.600000
 20
176.967000
 30
0.0
 11
79.600000
 21
211.967000
 31
0.0
  0
LINE
  5
265
100
AcDbEntity
  8
0
 62
5
100
AcDbLine
 10
79.600000
 20
229.467000
 30
0.0
 11
79.600000
 21
264.467000
 31
0.0
  0
LINE
  5
266
100
AcDbEntity
  8
0
 62
5
100
AcDbLine
 10
79.600000
 20
281.967000
 30
0.0
 11
79.600000
 21
316.967000
 31
0.0
  0
LINE
  5
267
100
AcDbEntity
  8
0
 62
5
100
AcDbLine
 10
82.677000
 20
176.967000
 30
0.0
 11
82.677000
 21
185.717000
 31
0.0
  0
LINE
  5
268
100
AcDbEntity
  8
0
 62
5
100
AcDbLine
 10
82.677000
 20
203.217000
 30
0.0
 11
82.677000
 21
238.217000
 31
0.0
  0
LINE
  5
269
100
AcDbEntity
  8
0
 62
5
100
AcDbLine
 10
82.677000
 20
255.717000
 30
0.0
 11
82.677000
 21
290.717000
 31
0.0
  0
LINE
  5
26a
100
AcDbEntity
  8
0
 62
5
100
AcDbLine
 10
82.677000
 20
308.217000
 30
0.0
 11
82.677000
 21
316.967000
 31
0.0
  0
LINE
  5
26b
100
AcDbEntity
  8
0
 62
5
100
AcDbLine
 10
85.753000
 20
176.967000
 30
0.0
 11
85.753000
 21
211.967000
 31
0.0
  0
LINE
  5
26c
100
AcDbEntity
  8
0
 62
5
100
AcDbLine
 10
85.753000
 20
229.467000
 30
0.0
 11
85.753000
 21
264.467000
 31
0.0
  0
LINE
  5
26d
100
AcDbEntity
  8
0
 62
5
100
AcDbLine
 10
85.753000
 20
281.967000
 30
0.0
 11
85.753000
 21
316.967000
 31
0.0
  0
LINE
  5
26e
100
AcDbEntity
  8
0
 62
5
100
AcDbLine
 10
88.830000
 20
176.967000
 30
0.0
 11
88.830000
 21
185.717000
 31
0.0
  0
LINE
  5
26f
100
AcDbEntity
  8
0
 62
5
100
AcDbLine
 10
88.830000
 20
203.217000
 30
0.0
 11
88.830000
 21
238.217000
 31
0.0
  0
LINE
  5
270
100
AcDbEntity
  8
0
 62
5
100
AcDbLine
 10
88.830000
 20
255.717000
 30
0.0
 11
88.830000
 21
290.717000
 31
0.0
  0
LINE
  5
271
100
AcDbEntity
  8
0
 62
5
100
AcDbLine
 10
88.830000
 20
308.217000
 30
0.0
 11
88.830000
 21
316.967000
 31
0.0
  0
LINE
  5
272
100
AcDbEntity
  8
0
 62
5
100
AcDbLine
 10
91.907000
 20
176.967000
 30
0.0
 11
91.907000
 21
211.967000
 31
0.0
  0
LINE
  5
273
100
AcDbEntity
  8
0
 62
5
100
AcDbLine
 10
91.907000
 20
229.467000
 30
0.0
 11
91.907000
 21
264.467000
 31
0.0
  0
LINE
  5
274
100
AcDbEntity
  8
0
 62
5
100
AcDbLine
 10
91.907000
 20
281.967000
 30
0.0
 11
91.907000
 21
316.967000
 31
0.0
  0
LINE
  5
275
100
AcDbEntity
  8
0
 62
5
100
AcDbLine
 10
94.983000
 20
176.967000
 30
0.0
 11
94.983000
 21
185.717000
 31
0.0
  0
LINE
  5
276
100
AcDbEntity
  8
0
 62
5
100
AcDbLine
 10
94.983000
 20
203.217000
 30
0.0
 11
94.983000
 21
238.217000
 31
0.0
  0
LINE
  5
277
100
AcDbEntity
  8
0
 62
5
100
AcDbLine
 10
94.983000
 20
255.717000
 30
0.0
 11
94.983000
 21
290.717000
 31
0.0
  0
LINE
  5
278
100
AcDbEntity
  8
0
 62
5
100
AcDbLine
 10
94.983000
 20
308.217000
 30
0.0
 11
94.983000
 21
316.967000
 31
0.0
  0
LINE
  5
279
100
AcDbEntity
  8
0
 62
5
100
AcDbLine
 10
98.060000
 20
176.967000
 30
0.0
 11
98.060000
 21
211.967000
 31
0.0
  0
LINE
  5
27a
100
AcDbEntity
  8
0
 62
5
100
AcDbLine
 10
98.060000
 20
229.467000
 30
0.0
 11
98.060000
 21
264.467000
 31
0.0
  0
LINE
  5
27b
100
AcDbEntity
  8
0
 62
5
100
AcDbLine
 10
98.060000
 20
281.967000
 30
0.0
 11
98.060000
 21
316.967000
 31
0.0
  0
LINE
  5
27c
100
AcDbEntity
  8
0
 62
5
100
AcDbLine
 10
101.136000
 20
176.967000
 30
0.0
 11
101.136000
 21
185.717000
 31
0.0
  0
LINE
  5
27d
100
AcDbEntity
  8
0
 62
5
100
AcDbLine
 10
101.136000
 20
203.217000
 30
0.0
 11
101.136000
 21
238.217000
 31
0.0
  0
LINE
  5
27e
100
AcDbEntity
  8
0
 62
5
100
AcDbLine
 10
101.136000
 20
255.717000
 30
0.0
 11
101.136000
 21
290.717000
 31
0.0
  0
LINE
  5
27f
100
AcDbEntity
  8
0
 62
5
100
AcDbLine
 10
101.136000
 20
308.217000
 30
0.0
 11
101.136000
 21
316.967000
 31
0.0
  0
LINE
  5
280
100
AcDbEntity
  8
0
 62
5
100
AcDbLine
 10
104.213000
 20
176.967000
 30
0.0
 11
104.213000
 21
211.967000
 31
0.0
  0
LINE
  5
281
100
AcDbEntity
  8
0
 62
5
100
AcDbLine
 10
104.213000
 20
229.467000
 30
0.0
 11
104.213000
 21
264.467000
 31
0.0
  0
LINE
  5
282
100
AcDbEntity
  8
0
 62
5
100
AcDbLine
 10
104.213000
 20
281.967000
 30
0.0
 11
104.213000
 21
316.967000
 31
0.0
  0
LINE
  5
283
100
AcDbEntity
  8
0
 62
5
100
AcDbLine
 10
107.290000
 20
176.967000
 30
0.0
 11
107.290000
 21
185.717000
 31
0.0
  0
LINE
  5
284
100
AcDbEntity
  8
0
 62
5
100
AcDbLine
 10
107.290000
 20
203.217000
 30
0.0
 11
107.290000
 21
238.217000
 31
0.0
  0
LINE
  5
285
100
AcDbEntity
  8
0
 62
5
100
AcDbLine
 10
107.290000
 20
255.717000
 30
0.0
 11
107.290000
 21
290.717000
 31
0.0
  0
LINE
  5
286
100
AcDbEntity
  8
0
 62
5
100
AcDbLine
 10
107.290000
 20
308.217000
 30
0.0
 11
107.290000
 21
316.967000
 31
0.0
  0
LINE
  5
287
100
AcDbEntity
  8
0
 62
5
100
AcDbLine
 10
110.366000
 20
176.967000
 30
0.0
 11
110.366000
 21
211.967000
 31
0.0
  0
LINE
  5
288
100
AcDbEntity
  8
0
 62
5
100
AcDbLine
 10
110.366000
 20
229.467000
 30
0.0
 11
110.366000
 21
264.467000
 31
0.0
  0
LINE
  5
289
100
AcDbEntity
  8
0
 62
5
100
AcDbLine
 10
110.366000
 20
281.967000
 30
0.0
 11
110.366000
 21
316.967000
 31
0.0
  0
LINE
  5
28a
100
AcDbEntity
  8
0
 62
5
100
AcDbLine
 10
113.443000
 20
176.967000
 30
0.0
 11
113.443000
 21
185.717000
 31
0.0
  0
LINE
  5
28b
100
AcDbEntity
  8
0
 62
5
100
AcDbLine
 10
113.443000
 20
203.217000
 30
0.0
 11
113.443000
 21
238.217000
 31
0.0
  0
LINE
  5
28c
100
AcDbEntity
  8
0
 62
5
100
AcDbLine
 10
113.443000
 20
255.717000
 30
0.0
 11
113.443000
 21
290.717000
 31
0.0
  0
LINE
  5
28d
100
AcDbEntity
  8
0
 62
5
100
AcDbLine
 10
113.443000
 20
308.217000
 30
0.0
 11
113.443000
 21
316.967000
 31
0.0
  0
LINE
  5
28e
100
AcDbEntity
  8
0
 62
5
100
AcDbLine
 10
116.520000
 20
176.967000
 30
0.0
 11
116.520000
 21
211.967000
 31
0.0
  0
LINE
  5
28f
100
AcDbEntity
  8
0
 62
5
100
AcDbLine
 10
116.520000
 20
229.467000
 30
0.0
 11
116.520000
 21
264.467000
 31
0.0
  0
LINE
  5
290
100
AcDbEntity
  8
0
 62
5
100
AcDbLine
 10
116.520000
 20
281.967000
 30
0.0
 11
116.520000
 21
316.967000
 31
0.0
  0
LINE
  5
291
100
AcDbEntity
  8
0
 62
5
100
AcDbLine
 10
119.596000
 20
176.967000
 30
0.0
 11
119.596000
 21
185.717000
 31
0.0
  0
LINE
  5
292
100
AcDbEntity
  8
0
 62
5
100
AcDbLine
 10
119.596000
 20
203.217000
 30
0.0
 11
119.596000
 21
238.217000
 31
0.0
  0
LINE
  5
293
100
AcDbEntity
  8
0
 62
5
100
AcDbLine
 10
119.596000
 20
255.717000
 30
0.0
 11
119.596000
 21
290.717000
 31
0.0
  0
LINE
  5
294
100
AcDbEntity
  8
0
 62
5
100
AcDbLine
 10
119.596000
 20
308.217000
 30
0.0
 11
119.596000
 21
316.967000
 31
0.0
  0
LINE
  5
295
100
AcDbEntity
  8
0
 62
5
100
AcDbLine
 10
122.673000
 20
176.967000
 30
0.0
 11
122.673000
 21
211.967000
 31
0.0
  0
LINE
  5
296
100
AcDbEntity
  8
0
 62
5
100
AcDbLine
 10
122.673000
 20
229.467000
 30
0.0
 11
122.673000
 21
264.467000
 31
0.0
  0
LINE
  5
297
100
AcDbEntity
  8
0
 62
5
100
AcDbLine
 10
122.673000
 20
281.967000
 30
0.0
 11
122.673000
 21
316.967000
 31
0.0
  0
LINE
  5
298
100
AcDbEntity
  8
0
 62
5
100
AcDbLine
 10
125.749000
 20
176.967000
 30
0.0
 11
125.749000
 21
185.717000
 31
0.0
  0
LINE
  5
299
100
AcDbEntity
  8
0
 62
5
100
AcDbLine
 10
125.749000
 20
203.217000
 30
0.0
 11
125.749000
 21
238.217000
 31
0.0
  0
LINE
  5
29a
100
AcDbEntity
  8
0
 62
5
100
AcDbLine
 10
125.749000
 20
255.717000
 30
0.0
 11
125.749000
 21
290.717000
 31
0.0
  0
LINE
  5
29b
100
AcDbEntity
  8
0
 62
5
100
AcDbLine
 10
125.749000
 20
308.217000
 30
0.0
 11
125.749000
 21
316.967000
 31
0.0
  0
LINE
  5
29c
100
AcDbEntity
  8
0
 62
5
100
AcDbLine
 10
128.826000
 20
176.967000
 30
0.0
 11
128.826000
 21
211.967000
 31
0.0
  0
LINE
  5
29d
100
AcDbEntity
  8
0
 62
5
100
AcDbLine
 10
128.826000
 20
229.467000
 30
0.0
 11
128.826000
 21
264.467000
 31
0.0
  0
LINE
  5
29e
100
AcDbEntity
  8
0
 62
5
100
AcDbLine
 10
128.826000
 20
281.967000
 30
0.0
 11
128.826000
 21
316.967000
 31
0.0
  0
LINE
  5
29f
100
AcDbEntity
  8
0
 62
5
100
AcDbLine
 10
131.903000
 20
176.967000
 30
0.0
 11
131.903000
 21
185.717000
 31
0.0
  0
LINE
  5
2a0
100
AcDbEntity
  8
0
 62
5
100
AcDbLine
 10
131.903000
 20
203.217000
 30
0.0
 11
131.903000
 21
238.217000
 31
0.0
  0
LINE
  5
2a1
100
AcDbEntity
  8
0
 62
5
100
AcDbLine
 10
131.903000
 20
255.717000
 30
0.0
 11
131.903000
 21
290.717000
 31
0.0
  0
LINE
  5
2a2
100
AcDbEntity
  8
0
 62
5
100
AcDbLine
 10
131.903000
 20
308.217000
 30
0.0
 11
131.903000
 21
316.967000
 31
0.0
  0
LINE
  5
2a3
100
AcDbEntity
  8
0
 62
5
100
AcDbLine
 10
134.979000
 20
176.967000
 30
0.0
 11
134.979000
 21
211.967000
 31
0.0
  0
LINE
  5
2a4
100
AcDbEntity
  8
0
 62
5
100
AcDbLine
 10
134.979000
 20
229.467000
 30
0.0
 11
134.979000
 21
264.467000
 31
0.0
  0
LINE
  5
2a5
100
AcDbEntity
  8
0
 62
5
100
AcDbLine
 10
134.979000
 20
281.967000
 30
0.0
 11
134.979000
 21
316.967000
 31
0.0
  0
LINE
  5
2a6
100
AcDbEntity
  8
0
 62
5
100
AcDbLine
 10
138.056000
 20
176.967000
 30
0.0
 11
138.056000
 21
185.717000
 31
0.0
  0
LINE
  5
2a7
100
AcDbEntity
  8
0
 62
5
100
AcDbLine
 10
138.056000
 20
203.217000
 30
0.0
 11
138.056000
 21
238.217000
 31
0.0
  0
LINE
  5
2a8
100
AcDbEntity
  8
0
 62
5
100
AcDbLine
 10
138.056000
 20
255.717000
 30
0.0
 11
138.056000
 21
290.717000
 31
0.0
  0
LINE
  5
2a9
100
AcDbEntity
  8
0
 62
5
100
AcDbLine
 10
138.056000
 20
308.217000
 30
0.0
 11
138.056000
 21
316.967000
 31
0.0
  0
LINE
  5
2aa
100
AcDbEntity
  8
0
 62
5
100
AcDbLine
 10
141.133000
 20
176.967000
 30
0.0
 11
141.133000
 21
211.967000
 31
0.0
  0
LINE
  5
2ab
100
AcDbEntity
  8
0
 62
5
100
AcDbLine
 10
141.133000
 20
229.467000
 30
0.0
 11
141.133000
 21
264.467000
 31
0.0
  0
LINE
  5
2ac
100
AcDbEntity
  8
0
 62
5
100
AcDbLine
 10
141.133000
 20
281.967000
 30
0.0
 11
141.133000
 21
316.967000
 31
0.0
  0
LINE
  5
2ad
100
AcDbEntity
  8
0
 62
5
100
AcDbLine
 10
144.209000
 20
176.967000
 30
0.0
 11
144.209000
 21
185.717000
 31
0.0
  0
LINE
  5
2ae
100
AcDbEntity
  8
0
 62
5
100
AcDbLine
 10
144.209000
 20
203.217000
 30
0.0
 11
144.209000
 21
238.217000
 31
0.0
  0
LINE
  5
2af
100
AcDbEntity
  8
0
 62
5
100
AcDbLine
 10
144.209000
 20
255.717000
 30
0.0
 11
144.209000
 21
290.717000
 31
0.0
  0
LINE
  5
2b0
100
AcDbEntity
  8
0
 62
5
100
AcDbLine
 10
144.209000
 20
308.217000
 30
0.0
 11
144.209000
 21
316.967000
 31
0.0
  0
LINE
  5
2b1
100
AcDbEntity
  8
0
 62
5
100
AcDbLine
 10
147.286000
 20
176.967000
 30
0.0
 11
147.286000
 21
211.967000
 31
0.0
  0
LINE
  5
2b2
100
AcDbEntity
  8
0
 62
5
100
AcDbLine
 10
147.286000
 20
229.467000
 30
0.0
 11
147.286000
 21
264.467000
 31
0.0
  0
LINE
  5
2b3
100
AcDbEntity
  8
0
 62
5
100
AcDbLine
 10
147.286000
 20
281.967000
 30
0.0
 11
147.286000
 21
316.967000
 31
0.0
  0
LINE
  5
2b4
100
AcDbEntity
  8
0
 62
5
100
AcDbLine
 10
228.253000
 20
176.967000
 30
0.0
 11
228.253000
 21
211.967000
 31
0.0
  0
LINE
  5
2b5
100
AcDbEntity
  8
0
 62
5
100
AcDbLine
 10
228.253000
 20
229.467000
 30
0.0
 11
228.253000
 21
264.467000
 31
0.0
  0
LINE
  5
2b6
100
AcDbEntity
  8
0
 62
5
100
AcDbLine
 10
228.253000
 20
281.967000
 30
0.0
 11
228.253000
 21
316.967000
 31
0.0
  0
LINE
  5
2b7
100
AcDbEntity
  8
0
 62
5
100
AcDbLine
 10
231.330000
 20
176.967000
 30
0.0
 11
231.330000
 21
185.717000
 31
0.0
  0
LINE
  5
2b8
100
AcDbEntity
  8
0
 62
5
100
AcDbLine
 10
231.330000
 20
203.217000
 30
0.0
 11
231.330000
 21
238.217000
 31
0.0
  0
LINE
  5
2b9
100
AcDbEntity
  8
0
 62
5
100
AcDbLine
 10
231.330000
 20
255.717000
 30
0.0
 11
231.330000
 21
290.717000
 31
0.0
  0
LINE
  5
2ba
100
AcDbEntity
  8
0
 62
5
100
AcDbLine
 10
231.330000
 20
308.217000
 30
0.0
 11
231.330000
 21
316.967000
 31
0.0
  0
LINE
  5
2bb
100
AcDbEntity
  8
0
 62
5
100
AcDbLine
 10
234.406000
 20
176.967000
 30
0.0
 11
234.406000
 21
211.967000
 31
0.0
  0
LINE
  5
2bc
100
AcDbEntity
  8
0
 62
5
100
AcDbLine
 10
234.406000
 20
229.467000
 30
0.0
 11
234.406000
 21
264.467000
 31
0.0
  0
LINE
  5
2bd
100
AcDbEntity
  8
0
 62
5
100
AcDbLine
 10
234.406000
 20
281.967000
 30
0.0
 11
234.406000
 21
316.967000
 31
0.0
  0
LINE
  5
2be
100
AcDbEntity
  8
0
 62
5
100
AcDbLine
 10
237.483000
 20
176.967000
 30
0.0
 11
237.483000
 21
185.717000
 31
0.0
  0
LINE
  5
2bf
100
AcDbEntity
  8
0
 62
5
100
AcDbLine
 10
237.483000
 20
203.217000
 30
0.0
 11
237.483000
 21
238.217000
 31
0.0
  0
LINE
  5
2c0
100
AcDbEntity
  8
0
 62
5
100
AcDbLine
 10
237.483000
 20
255.717000
 30
0.0
 11
237.483000
 21
290.717000
 31
0.0
  0
LINE
  5
2c1
100
AcDbEntity
  8
0
 62
5
100
AcDbLine
 10
237.483000
 20
308.217000
 30
0.0
 11
237.483000
 21
316.967000
 31
0.0
  0
LINE
  5
2c2
100
AcDbEntity
  8
0
 62
5
100
AcDbLine
 10
240.560000
 20
176.967000
 30
0.0
 11
240.560000
 21
211.967000
 31
0.0
  0
LINE
  5
2c3
100
AcDbEntity
  8
0
 62
5
100
AcDbLine
 10
240.560000
 20
229.467000
 30
0.0
 11
240.560000
 21
264.467000
 31
0.0
  0
LINE
  5
2c4
100
AcDbEntity
  8
0
 62
5
100
AcDbLine
 10
240.560000
 20
281.967000
 30
0.0
 11
240.560000
 21
316.967000
 31
0.0
  0
LINE
  5
2c5
100
AcDbEntity
  8
0
 62
5
100
AcDbLine
 10
243.636000
 20
176.967000
 30
0.0
 11
243.636000
 21
185.717000
 31
0.0
  0
LINE
  5
2c6
100
AcDbEntity
  8
0
 62
5
100
AcDbLine
 10
243.636000
 20
203.217000
 30
0.0
 11
243.636000
 21
238.217000
 31
0.0
  0
LINE
  5
2c7
100
AcDbEntity
  8
0
 62
5
100
AcDbLine
 10
243.636000
 20
255.717000
 30
0.0
 11
243.636000
 21
290.717000
 31
0.0
  0
LINE
  5
2c8
100
AcDbEntity
  8
0
 62
5
100
AcDbLine
 10
243.636000
 20
308.217000
 30
0.0
 11
243.636000
 21
316.967000
 31
0.0
  0
LINE
  5
2c9
100
AcDbEntity
  8
0
 62
5
100
AcDbLine
 10
246.713000
 20
176.967000
 30
0.0
 11
246.713000
 21
211.967000
 31
0.0
  0
LINE
  5
2ca
100
AcDbEntity
  8
0
 62
5
100
AcDbLine
 10
246.713000
 20
229.467000
 30
0.0
 11
246.713000
 21
264.467000
 31
0.0
  0
LINE
  5
2cb
100
AcDbEntity
  8
0
 62
5
100
AcDbLine
 10
246.713000
 20
281.967000
 30
0.0
 11
246.713000
 21
316.967000
 31
0.0
  0
LINE
  5
2cc
100
AcDbEntity
  8
0
 62
5
100
AcDbLine
 10
249.790000
 20
176.967000
 30
0.0
 11
249.790000
 21
185.717000
 31
0.0
  0
LINE
  5
2cd
100
AcDbEntity
  8
0
 62
5
100
AcDbLine
 10
249.790000
 20
203.217000
 30
0.0
 11
249.790000
 21
238.217000
 31
0.0
  0
LINE
  5
2ce
100
AcDbEntity
  8
0
 62
5
100
AcDbLine
 10
249.790000
 20
255.717000
 30
0.0
 11
249.790000
 21
290.717000
 31
0.0
  0
LINE
  5
2cf
100
AcDbEntity
  8
0
 62
5
100
AcDbLine
 10
249.790000
 20
308.217000
 30
0.0
 11
249.790000
 21
316.967000
 31
0.0
  0
LINE
  5
2d0
100
AcDbEntity
  8
0
 62
5
100
AcDbLine
 10
252.866000
 20
176.967000
 30
0.0
 11
252.866000
 21
211.967000
 31
0.0
  0
LINE
  5
2d1
100
AcDbEntity
  8
0
 62
5
100
AcDbLine
 10
252.866000
 20
229.467000
 30
0.0
 11
252.866000
 21
264.467000
 31
0.0
  0
LINE
  5
2d2
100
AcDbEntity
  8
0
 62
5
100
AcDbLine
 10
252.866000
 20
281.967000
 30
0.0
 11
252.866000
 21
316.967000
 31
0.0
  0
LINE
  5
2d3
100
AcDbEntity
  8
0
 62
5
100
AcDbLine
 10
255.943000
 20
176.967000
 30
0.0
 11
255.943000
 21
185.717000
 31
0.0
  0
LINE
  5
2d4
100
AcDbEntity
  8
0
 62
5
100
AcDbLine
 10
255.943000
 20
203.217000
 30
0.0
 11
255.943000
 21
238.217000
 31
0.0
  0
LINE
  5
2d5
100
AcDbEntity
  8
0
 62
5
100
AcDbLine
 10
255.943000
 20
255.717000
 30
0.0
 11
255.943000
 21
290.717000
 31
0.0
  0
LINE
  5
2d6
100
AcDbEntity
  8
0
 62
5
100
AcDbLine
 10
255.943000
 20
308.217000
 30
0.0
 11
255.943000
 21
316.967000
 31
0.0
  0
LINE
  5
2d7
100
AcDbEntity
  8
0
 62
5
100
AcDbLine
 10
259.019000
 20
176.967000
 30
0.0
 11
259.019000
 21
211.967000
 31
0.0
  0
LINE
  5
2d8
100
AcDbEntity
  8
0
 62
5
100
AcDbLine
 10
259.019000
 20
229.467000
 30
0.0
 11
259.019000
 21
264.467000
 31
0.0
  0
LINE
  5
2d9
100
AcDbEntity
  8
0
 62
5
100
AcDbLine
 10
259.019000
 20
281.967000
 30
0.0
 11
259.019000
 21
316.967000
 31
0.0
  0
LINE
  5
2da
100
AcDbEntity
  8
0
 62
5
100
AcDbLine
 10
262.096000
 20
176.967000
 30
0.0
 11
262.096000
 21
185.717000
 31
0.0
  0
LINE
  5
2db
100
AcDbEntity
  8
0
 62
5
100
AcDbLine
 10
262.096000
 20
203.217000
 30
0.0
 11
262.096000
 21
238.217000
 31
0.0
  0
LINE
  5
2dc
100
AcDbEntity
  8
0
 62
5
100
AcDbLine
 10
262.096000
 20
255.717000
 30
0.0
 11
262.096000
 21
290.717000
 31
0.0
  0
LINE
  5
2dd
100
AcDbEntity
  8
0
 62
5
100
AcDbLine
 10
262.096000
 20
308.217000
 30
0.0
 11
262.096000
 21
316.967000
 31
0.0
  0
LINE
  5
2de
100
AcDbEntity
  8
0
 62
5
100
AcDbLine
 10
265.173000
 20
176.967000
 30
0.0
 11
265.173000
 21
211.967000
 31
0.0
  0
LINE
  5
2df
100
AcDbEntity
  8
0
 62
5
100
AcDbLine
 10
265.173000
 20
229.467000
 30
0.0
 11
265.173000
 21
264.467000
 31
0.0
  0
LINE
  5
2e0
100
AcDbEntity
  8
0
 62
5
100
AcDbLine
 10
265.173000
 20
281.967000
 30
0.0
 11
265.173000
 21
316.967000
 31
0.0
  0
LINE
  5
2e1
100
AcDbEntity
  8
0
 62
5
100
AcDbLine
 10
268.249000
 20
176.967000
 30
0.0
 11
268.249000
 21
185.717000
 31
0.0
  0
LINE
  5
2e2
100
AcDbEntity
  8
0
 62
5
100
AcDbLine
 10
268.249000
 20
203.217000
 30
0.0
 11
268.249000
 21
238.217000
 31
0.0
  0
LINE
  5
2e3
100
AcDbEntity
  8
0
 62
5
100
AcDbLine
 10
268.249000
 20
255.717000
 30
0.0
 11
268.249000
 21
290.717000
 31
0.0
  0
LINE
  5
2e4
100
AcDbEntity
  8
0
 62
5
100
AcDbLine
 10
268.249000
 20
308.217000
 30
0.0
 11
268.249000
 21
316.967000
 31
0.0
  0
LINE
  5
2e5
100
AcDbEntity
  8
0
 62
5
100
AcDbLine
 10
271.326000
 20
176.967000
 30
0.0
 11
271.326000
 21
211.967000
 31
0.0
  0
LINE
  5
2e6
100
AcDbEntity
  8
0
 62
5
100
AcDbLine
 10
271.326000
 20
229.467000
 30
0.0
 11
271.326000
 21
264.467000
 31
0.0
  0
LINE
  5
2e7
100
AcDbEntity
  8
0
 62
5
100
AcDbLine
 10
271.326000
 20
281.967000
 30
0.0
 11
271.326000
 21
316.967000
 31
0.0
  0
LINE
  5
2e8
100
AcDbEntity
  8
0
 62
5
100
AcDbLine
 10
274.403000
 20
176.967000
 30
0.0
 11
274.403000
 21
185.717000
 31
0.0
  0
LINE
  5
2e9
100
AcDbEntity
  8
0
 62
5
100
AcDbLine
 10
274.403000
 20
203.217000
 30
0.0
 11
274.403000
 21
238.217000
 31
0.0
  0
LINE
  5
2ea
100
AcDbEntity
  8
0
 62
5
100
AcDbLine
 10
274.403000
 20
255.717000
 30
0.0
 11
274.403000
 21
290.717000
 31
0.0
  0
LINE
  5
2eb
100
AcDbEntity
  8
0
 62
5
100
AcDbLine
 10
274.403000
 20
308.217000
 30
0.0
 11
274.403000
 21
316.967000
 31
0.0
  0
LINE
  5
2ec
100
AcDbEntity
  8
0
 62
5
100
AcDbLine
 10
277.479000
 20
176.967000
 30
0.0
 11
277.479000
 21
211.967000
 31
0.0
  0
LINE
  5
2ed
100
AcDbEntity
  8
0
 62
5
100
AcDbLine
 10
277.479000
 20
229.467000
 30
0.0
 11
277.479000
 21
264.467000
 31
0.0
  0
LINE
  5
2ee
100
AcDbEntity
  8
0
 62
5
100
AcDbLine
 10
277.479000
 20
281.967000
 30
0.0
 11
277.479000
 21
316.967000
 31
0.0
  0
LINE
  5
2ef
100
AcDbEntity
  8
0
 62
5
100
AcDbLine
 10
280.556000
 20
176.967000
 30
0.0
 11
280.556000
 21
185.717000
 31
0.0
  0
LINE
  5
2f0
100
AcDbEntity
  8
0
 62
5
100
AcDbLine
 10
280.556000
 20
203.217000
 30
0.0
 11
280.556000
 21
238.217000
 31
0.0
  0
LINE
  5
2f1
100
AcDbEntity
  8
0
 62
5
100
AcDbLine
 10
280.556000
 20
255.717000
 30
0.0
 11
280.556000
 21
290.717000
 31
0.0
  0
LINE
  5
2f2
100
AcDbEntity
  8
0
 62
5
100
AcDbLine
 10
280.556000
 20
308.217000
 30
0.0
 11
280.556000
 21
316.967000
 31
0.0
  0
LINE
  5
2f3
100
AcDbEntity
  8
0
 62
5
100
AcDbLine
 10
283.632000
 20
176.967000
 30
0.0
 11
283.632000
 21
211.967000
 31
0.0
  0
LINE
  5
2f4
100
AcDbEntity
  8
0
 62
5
100
AcDbLine
 10
283.632000
 20
229.467000
 30
0.0
 11
283.632000
 21
264.467000
 31
0.0
  0
LINE
  5
2f5
100
AcDbEntity
  8
0
 62
5
100
AcDbLine
 10
283.632000
 20
281.967000
 30
0.0
 11
283.632000
 21
316.967000
 31
0.0
  0
LINE
  5
2f6
100
AcDbEntity
  8
0
 62
5
100
AcDbLine
 10
286.709000
 20
176.967000
 30
0.0
 11
286.709000
 21
185.717000
 31
0.0
  0
LINE
  5
2f7
100
AcDbEntity
  8
0
 62
5
100
AcDbLine
 10
286.709000
 20
203.217000
 30
0.0
 11
286.709000
 21
238.217000
 31
0.0
  0
LINE
  5
2f8
100
AcDbEntity
  8
0
 62
5
100
AcDbLine
 10
286.709000
 20
255.717000
 30
0.0
 11
286.709000
 21
290.717000
 31
0.0
  0
LINE
  5
2f9
100
AcDbEntity
  8
0
 62
5
100
AcDbLine
 10
286.709000
 20
308.217000
 30
0.0
 11
286.709000
 21
316.967000
 31
0.0
  0
LINE
  5
2fa
100
AcDbEntity
  8
0
 62
5
100
AcDbLine
 10
289.786000
 20
176.967000
 30
0.0
 11
289.786000
 21
211.967000
 31
0.0
  0
LINE
  5
2fb
100
AcDbEntity
  8
0
 62
5
100
AcDbLine
 10
289.786000
 20
229.467000
 30
0.0
 11
289.786000
 21
264.467000
 31
0.0
  0
LINE
  5
2fc
100
AcDbEntity
  8
0
 62
5
100
AcDbLine
 10
289.786000
 20
281.967000
 30
0.0
 11
289.786000
 21
316.967000
 31
0.0
  0
LINE
  5
2fd
100
AcDbEntity
  8
0
 62
5
100
AcDbLine
 10
292.862000
 20
176.967000
 30
0.0
 11
292.862000
 21
185.717000
 31
0.0
  0
LINE
  5
2fe
100
AcDbEntity
  8
0
 62
5
100
AcDbLine
 10
292.862000
 20
203.217000
 30
0.0
 11
292.862000
 21
238.217000
 31
0.0
  0
LINE
  5
2ff
100
AcDbEntity
  8
0
 62
5
100
AcDbLine
 10
292.862000
 20
255.717000
 30
0.0
 11
292.862000
 21
290.717000
 31
0.0
  0
LINE
  5
300
100
AcDbEntity
  8
0
 62
5
100
AcDbLine
 10
292.862000
 20
308.217000
 30
0.0
 11
292.862000
 21
316.967000
 31
0.0
  0
LINE
  5
301
100
AcDbEntity
  8
0
 62
5
100
AcDbLine
 10
295.939000
 20
176.967000
 30
0.0
 11
295.939000
 21
211.967000
 31
0.0
  0
LINE
  5
302
100
AcDbEntity
  8
0
 62
5
100
AcDbLine
 10
295.939000
 20
229.467000
 30
0.0
 11
295.939000
 21
264.467000
 31
0.0
  0
LINE
  5
303
100
AcDbEntity
  8
0
 62
5
100
AcDbLine
 10
295.939000
 20
281.967000
 30
0.0
 11
295.939000
 21
316.967000
 31
0.0
  0
LINE
  5
304
100
AcDbEntity
  8
0
 62
5
100
AcDbLine
 10
458.139000
 20
176.967000
 30
0.0
 11
458.139000
 21
211.967000
 31
0.0
  0
LINE
  5
305
100
AcDbEntity
  8
0
 62
5
100
AcDbLine
 10
458.139000
 20
229.467000
 30
0.0
 11
458.139000
 21
264.467000
 31
0.0
  0
LINE
  5
306
100
AcDbEntity
  8
0
 62
5
100
AcDbLine
 10
458.139000
 20
281.967000
 30
0.0
 11
458.139000
 21
316.967000
 31
0.0
  0
LINE
  5
307
100
AcDbEntity
  8
0
 62
5
100
AcDbLine
 10
461.216000
 20
176.967000
 30
0.0
 11
461.216000
 21
185.717000
 31
0.0
  0
LINE
  5
308
100
AcDbEntity
  8
0
 62
5
100
AcDbLine
 10
461.216000
 20
203.217000
 30
0.0
 11
461.216000
 21
238.217000
 31
0.0
  0
LINE
  5
309
100
AcDbEntity
  8
0
 62
5
100
AcDbLine
 10
461.216000
 20
255.717000
 30
0.0
 11
461.216000
 21
290.717000
 31
0.0
  0
LINE
  5
30a
100
AcDbEntity
  8
0
 62
5
100
AcDbLine
 10
461.216000
 20
308.217000
 30
0.0
 11
461.216000
 21
316.967000
 31
0.0
  0
LINE
  5
30b
100
AcDbEntity
  8
0
 62
5
100
AcDbLine
 10
464.292000
 20
176.967000
 30
0.0
 11
464.292000
 21
211.967000
 31
0.0
  0
LINE
  5
30c
100
AcDbEntity
  8
0
 62
5
100
AcDbLine
 10
464.292000
 20
229.467000
 30
0.0
 11
464.292000
 21
264.467000
 31
0.0
  0
LINE
  5
30d
100
AcDbEntity
  8
0
 62
5
100
AcDbLine
 10
464.292000
 20
281.967000
 30
0.0
 11
464.292000
 21
316.967000
 31
0.0
  0
LINE
  5
30e
100
AcDbEntity
  8
0
 62
5
100
AcDbLine
 10
467.369000
 20
176.967000
 30
0.0
 11
467.369000
 21
185.717000
 31
0.0
  0
LINE
  5
30f
100
AcDbEntity
  8
0
 62
5
100
AcDbLine
 10
467.369000
 20
203.217000
 30
0.0
 11
467.369000
 21
238.217000
 31
0.0
  0
LINE
  5
310
100
AcDbEntity
  8
0
 62
5
100
AcDbLine
 10
467.369000
 20
255.717000
 30
0.0
 11
467.369000
 21
290.717000
 31
0.0
  0
LINE
  5
311
100
AcDbEntity
  8
0
 62
5
100
AcDbLine
 10
467.369000
 20
308.217000
 30
0.0
 11
467.369000
 21
316.967000
 31
0.0
  0
LINE
  5
312
100
AcDbEntity
  8
0
 62
5
100
AcDbLine
 10
470.445000
 20
176.967000
 30
0.0
 11
470.445000
 21
211.967000
 31
0.0
  0
LINE
  5
313
100
AcDbEntity
  8
0
 62
5
100
AcDbLine
 10
470.445000
 20
229.467000
 30
0.0
 11
470.445000
 21
264.467000
 31
0.0
  0
LINE
  5
314
100
AcDbEntity
  8
0
 62
5
100
AcDbLine
 10
470.445000
 20
281.967000
 30
0.0
 11
470.445000
 21
316.967000
 31
0.0
  0
LINE
  5
315
100
AcDbEntity
  8
0
 62
5
100
AcDbLine
 10
473.522000
 20
176.967000
 30
0.0
 11
473.522000
 21
185.717000
 31
0.0
  0
LINE
  5
316
100
AcDbEntity
  8
0
 62
5
100
AcDbLine
 10
473.522000
 20
203.217000
 30
0.0
 11
473.522000
 21
238.217000
 31
0.0
  0
LINE
  5
317
100
AcDbEntity
  8
0
 62
5
100
AcDbLine
 10
473.522000
 20
255.717000
 30
0.0
 11
473.522000
 21
290.717000
 31
0.0
  0
LINE
  5
318
100
AcDbEntity
  8
0
 62
5
100
AcDbLine
 10
473.522000
 20
308.217000
 30
0.0
 11
473.522000
 21
316.967000
 31
0.0
  0
LINE
  5
319
100
AcDbEntity
  8
0
 62
5
100
AcDbLine
 10
476.599000
 20
176.967000
 30
0.0
 11
476.599000
 21
211.967000
 31
0.0
  0
LINE
  5
31a
100
AcDbEntity
  8
0
 62
5
100
AcDbLine
 10
476.599000
 20
229.467000
 30
0.0
 11
476.599000
 21
264.467000
 31
0.0
  0
LINE
  5
31b
100
AcDbEntity
  8
0
 62
5
100
AcDbLine
 10
476.599000
 20
281.967000
 30
0.0
 11
476.599000
 21
316.967000
 31
0.0
  0
LINE
  5
31c
100
AcDbEntity
  8
0
 62
5
100
AcDbLine
 10
479.675000
 20
176.967000
 30
0.0
 11
479.675000
 21
185.717000
 31
0.0
  0
LINE
  5
31d
100
AcDbEntity
  8
0
 62
5
100
AcDbLine
 10
479.675000
 20
203.217000
 30
0.0
 11
479.675000
 21
238.217000
 31
0.0
  0
LINE
  5
31e
100
AcDbEntity
  8
0
 62
5
100
AcDbLine
 10
479.675000
 20
255.717000
 30
0.0
 11
479.675000
 21
290.717000
 31
0.0
  0
LINE
  5
31f
100
AcDbEntity
  8
0
 62
5
100
AcDbLine
 10
479.675000
 20
308.217000
 30
0.0
 11
479.675000
 21
316.967000
 31
0.0
  0
LINE
  5
320
100
AcDbEntity
  8
0
 62
5
100
AcDbLine
 10
482.752000
 20
176.967000
 30
0.0
 11
482.752000
 21
211.967000
 31
0.0
  0
LINE
  5
321
100
AcDbEntity
  8
0
 62
5
100
AcDbLine
 10
482.752000
 20
229.467000
 30
0.0
 11
482.752000
 21
264.467000
 31
0.0
  0
LINE
  5
322
100
AcDbEntity
  8
0
 62
5
100
AcDbLine
 10
482.752000
 20
281.967000
 30
0.0
 11
482.752000
 21
316.967000
 31
0.0
  0
LINE
  5
323
100
AcDbEntity
  8
0
 62
5
100
AcDbLine
 10
485.829000
 20
176.967000
 30
0.0
 11
485.829000
 21
185.717000
 31
0.0
  0
LINE
  5
324
100
AcDbEntity
  8
0
 62
5
100
AcDbLine
 10
485.829000
 20
203.217000
 30
0.0
 11
485.829000
 21
238.217000
 31
0.0
  0
LINE
  5
325
100
AcDbEntity
  8
0
 62
5
100
AcDbLine
 10
485.829000
 20
255.717000
 30
0.0
 11
485.829000
 21
290.717000
 31
0.0
  0
LINE
  5
326
100
AcDbEntity
  8
0
 62
5
100
AcDbLine
 10
485.829000
 20
308.217000
 30
0.0
 11
485.829000
 21
316.967000
 31
0.0
  0
LINE
  5
327
100
AcDbEntity
  8
0
 62
5
100
AcDbLine
 10
488.905000
 20
176.967000
 30
0.0
 11
488.905000
 21
211.967000
 31
0.0
  0
LINE
  5
328
100
AcDbEntity
  8
0
 62
5
100
AcDbLine
 10
488.905000
 20
229.467000
 30
0.0
 11
488.905000
 21
264.467000
 31
0.0
  0
LINE
  5
329
100
AcDbEntity
  8
0
 62
5
100
AcDbLine
 10
488.905000
 20
281.967000
 30
0.0
 11
488.905000
 21
316.967000
 31
0.0
  0
LINE
  5
32a
100
AcDbEntity
  8
0
 62
5
100
AcDbLine
 10
491.982000
 20
176.967000
 30
0.0
 11
491.982000
 21
185.717000
 31
0.0
  0
LINE
  5
32b
100
AcDbEntity
  8
0
 62
5
100
AcDbLine
 10
491.982000
 20
203.217000
 30
0.0
 11
491.982000
 21
238.217000
 31
0.0
  0
LINE
  5
32c
100
AcDbEntity
  8
0
 62
5
100
AcDbLine
 10
491.982000
 20
255.717000
 30
0.0
 11
491.982000
 21
290.717000
 31
0.0
  0
LINE
  5
32d
100
AcDbEntity
  8
0
 62
5
100
AcDbLine
 10
491.982000
 20
308.217000
 30
0.0
 11
491.982000
 21
316.967000
 31
0.0
  0
LINE
  5
32e
100
AcDbEntity
  8
0
 62
5
100
AcDbLine
 10
495.059000
 20
176.967000
 30
0.0
 11
495.059000
 21
211.967000
 31
0.0
  0
LINE
  5
32f
100
AcDbEntity
  8
0
 62
5
100
AcDbLine
 10
495.059000
 20
229.467000
 30
0.0
 11
495.059000
 21
264.467000
 31
0.0
  0
LINE
  5
330
100
AcDbEntity
  8
0
 62
5
100
AcDbLine
 10
495.059000
 20
281.967000
 30
0.0
 11
495.059000
 21
316.967000
 31
0.0
  0
LINE
  5
331
100
AcDbEntity
  8
0
 62
5
100
AcDbLine
 10
498.135000
 20
176.967000
 30
0.0
 11
498.135000
 21
185.717000
 31
0.0
  0
LINE
  5
332
100
AcDbEntity
  8
0
 62
5
100
AcDbLine
 10
498.135000
 20
203.217000
 30
0.0
 11
498.135000
 21
238.217000
 31
0.0
  0
LINE
  5
333
100
AcDbEntity
  8
0
 62
5
100
AcDbLine
 10
498.135000
 20
255.717000
 30
0.0
 11
498.135000
 21
290.717000
 31
0.0
  0
LINE
  5
334
100
AcDbEntity
  8
0
 62
5
100
AcDbLine
 10
498.135000
 20
308.217000
 30
0.0
 11
498.135000
 21
316.967000
 31
0.0
  0
LINE
  5
335
100
AcDbEntity
  8
0
 62
5
100
AcDbLine
 10
501.212000
 20
176.967000
 30
0.0
 11
501.212000
 21
211.967000
 31
0.0
  0
LINE
  5
336
100
AcDbEntity
  8
0
 62
5
100
AcDbLine
 10
501.212000
 20
229.467000
 30
0.0
 11
501.212000
 21
264.467000
 31
0.0
  0
LINE
  5
337
100
AcDbEntity
  8
0
 62
5
100
AcDbLine
 10
501.212000
 20
281.967000
 30
0.0
 11
501.212000
 21
316.967000
 31
0.0
  0
LINE
  5
338
100
AcDbEntity
  8
0
 62
5
100
AcDbLine
 10
504.288000
 20
176.967000
 30
0.0
 11
504.288000
 21
185.717000
 31
0.0
  0
LINE
  5
339
100
AcDbEntity
  8
0
 62
5
100
AcDbLine
 10
504.288000
 20
203.217000
 30
0.0
 11
504.288000
 21
238.217000
 31
0.0
  0
LINE
  5
33a
100
AcDbEntity
  8
0
 62
5
100
AcDbLine
 10
504.288000
 20
255.717000
 30
0.0
 11
504.288000
 21
290.717000
 31
0.0
  0
LINE
  5
33b
100
AcDbEntity
  8
0
 62
5
100
AcDbLine
 10
504.288000
 20
308.217000
 30
0.0
 11
504.288000
 21
316.967000
 31
0.0
  0
LINE
  5
33c
100
AcDbEntity
  8
0
 62
5
100
AcDbLine
 10
507.365000
 20
176.967000
 30
0.0
 11
507.365000
 21
211.967000
 31
0.0
  0
LINE
  5
33d
100
AcDbEntity
  8
0
 62
5
100
AcDbLine
 10
507.365000
 20
229.467000
 30
0.0
 11
507.365000
 21
264.467000
 31
0.0
  0
LINE
  5
33e
100
AcDbEntity
  8
0
 62
5
100
AcDbLine
 10
507.365000
 20
281.967000
 30
0.0
 11
507.365000
 21
316.967000
 31
0.0
  0
LINE
  5
33f
100
AcDbEntity
  8
0
 62
5
100
AcDbLine
 10
510.442000
 20
176.967000
 30
0.0
 11
510.442000
 21
185.717000
 31
0.0
  0
LINE
  5
340
100
AcDbEntity
  8
0
 62
5
100
AcDbLine
 10
510.442000
 20
203.217000
 30
0.0
 11
510.442000
 21
238.217000
 31
0.0
  0
LINE
  5
341
100
AcDbEntity
  8
0
 62
5
100
AcDbLine
 10
510.442000
 20
255.717000
 30
0.0
 11
510.442000
 21
290.717000
 31
0.0
  0
LINE
  5
342
100
AcDbEntity
  8
0
 62
5
100
AcDbLine
 10
510.442000
 20
308.217000
 30
0.0
 11
510.442000
 21
316.967000
 31
0.0
  0
LINE
  5
343
100
AcDbEntity
  8
0
 62
5
100
AcDbLine
 10
513.518000
 20
176.967000
 30
0.0
 11
513.518000
 21
211.967000
 31
0.0
  0
LINE
  5
344
100
AcDbEntity
  8
0
 62
5
100
AcDbLine
 10
513.518000
 20
229.467000
 30
0.0
 11
513.518000
 21
264.467000
 31
0.0
  0
LINE
  5
345
100
AcDbEntity
  8
0
 62
5
100
AcDbLine
 10
513.518000
 20
281.967000
 30
0.0
 11
513.518000
 21
316.967000
 31
0.0
  0
LINE
  5
346
100
AcDbEntity
  8
0
 62
5
100
AcDbLine
 10
516.595000
 20
176.967000
 30
0.0
 11
516.595000
 21
185.717000
 31
0.0
  0
LINE
  5
347
100
AcDbEntity
  8
0
 62
5
100
AcDbLine
 10
516.595000
 20
203.217000
 30
0.0
 11
516.595000
 21
238.217000
 31
0.0
  0
LINE
  5
348
100
AcDbEntity
  8
0
 62
5
100
AcDbLine
 10
516.595000
 20
255.717000
 30
0.0
 11
516.595000
 21
290.717000
 31
0.0
  0
LINE
  5
349
100
AcDbEntity
  8
0
 62
5
100
AcDbLine
 10
516.595000
 20
308.217000
 30
0.0
 11
516.595000
 21
316.967000
 31
0.0
  0
LINE
  5
34a
100
AcDbEntity
  8
0
 62
5
100
AcDbLine
 10
519.672000
 20
176.967000
 30
0.0
 11
519.672000
 21
211.967000
 31
0.0
  0
LINE
  5
34b
100
AcDbEntity
  8
0
 62
5
100
AcDbLine
 10
519.672000
 20
229.467000
 30
0.0
 11
519.672000
 21
264.467000
 31
0.0
  0
LINE
  5
34c
100
AcDbEntity
  8
0
 62
5
100
AcDbLine
 10
519.672000
 20
281.967000
 30
0.0
 11
519.672000
 21
316.967000
 31
0.0
  0
LINE
  5
34d
100
AcDbEntity
  8
0
 62
5
100
AcDbLine
 10
522.748000
 20
176.967000
 30
0.0
 11
522.748000
 21
185.717000
 31
0.0
  0
LINE
  5
34e
100
AcDbEntity
  8
0
 62
5
100
AcDbLine
 10
522.748000
 20
203.217000
 30
0.0
 11
522.748000
 21
238.217000
 31
0.0
  0
LINE
  5
34f
100
AcDbEntity
  8
0
 62
5
100
AcDbLine
 10
522.748000
 20
255.717000
 30
0.0
 11
522.748000
 21
290.717000
 31
0.0
  0
LINE
  5
350
100
AcDbEntity
  8
0
 62
5
100
AcDbLine
 10
522.748000
 20
308.217000
 30
0.0
 11
522.748000
 21
316.967000
 31
0.0
  0
LINE
  5
351
100
AcDbEntity
  8
0
 62
5
100
AcDbLine
 10
525.825000
 20
176.967000
 30
0.0
 11
525.825000
 21
211.967000
 31
0.0
  0
LINE
  5
352
100
AcDbEntity
  8
0
 62
5
100
AcDbLine
 10
525.825000
 20
229.467000
 30
0.0
 11
525.825000
 21
264.467000
 31
0.0
  0
LINE
  5
353
100
AcDbEntity
  8
0
 62
5
100
AcDbLine
 10
525.825000
 20
281.967000
 30
0.0
 11
525.825000
 21
316.967000
 31
0.0
  0
LINE
  5
354
100
AcDbEntity
  8
0
 62
5
100
AcDbLine
 10
606.792000
 20
176.967000
 30
0.0
 11
606.792000
 21
211.967000
 31
0.0
  0
LINE
  5
355
100
AcDbEntity
  8
0
 62
5
100
AcDbLine
 10
606.792000
 20
229.467000
 30
0.0
 11
606.792000
 21
264.467000
 31
0.0
  0
LINE
  5
356
100
AcDbEntity
  8
0
 62
5
100
AcDbLine
 10
606.792000
 20
281.967000
 30
0.0
 11
606.792000
 21
316.967000
 31
0.0
  0
LINE
  5
357
100
AcDbEntity
  8
0
 62
5
100
AcDbLine
 10
609.869000
 20
176.967000
 30
0.0
 11
609.869000
 21
185.717000
 31
0.0
  0
LINE
  5
358
100
AcDbEntity
  8
0
 62
5
100
AcDbLine
 10
609.869000
 20
203.217000
 30
0.0
 11
609.869000
 21
238.217000
 31
0.0
  0
LINE
  5
359
100
AcDbEntity
  8
0
 62
5
100
AcDbLine
 10
609.869000
 20
255.717000
 30
0.0
 11
609.869000
 21
290.717000
 31
0.0
  0
LINE
  5
35a
100
AcDbEntity
  8
0
 62
5
100
AcDbLine
 10
609.869000
 20
308.217000
 30
0.0
 11
609.869000
 21
316.967000
 31
0.0
  0
LINE
  5
35b
100
AcDbEntity
  8
0
 62
5
100
AcDbLine
 10
612.945000
 20
176.967000
 30
0.0
 11
612.945000
 21
211.967000
 31
0.0
  0
LINE
  5
35c
100
AcDbEntity
  8
0
 62
5
100
AcDbLine
 10
612.945000
 20
229.467000
 30
0.0
 11
612.945000
 21
264.467000
 31
0.0
  0
LINE
  5
35d
100
AcDbEntity
  8
0
 62
5
100
AcDbLine
 10
612.945000
 20
281.967000
 30
0.0
 11
612.945000
 21
316.967000
 31
0.0
  0
LINE
  5
35e
100
AcDbEntity
  8
0
 62
5
100
AcDbLine
 10
616.022000
 20
176.967000
 30
0.0
 11
616.022000
 21
185.717000
 31
0.0
  0
LINE
  5
35f
100
AcDbEntity
  8
0
 62
5
100
AcDbLine
 10
616.022000
 20
203.217000
 30
0.0
 11
616.022000
 21
238.217000
 31
0.0
  0
LINE
  5
360
100
AcDbEntity
  8
0
 62
5
100
AcDbLine
 10
616.022000
 20
255.717000
 30
0.0
 11
616.022000
 21
290.717000
 31
0.0
  0
LINE
  5
361
100
AcDbEntity
  8
0
 62
5
100
AcDbLine
 10
616.022000
 20
308.217000
 30
0.0
 11
616.022000
 21
316.967000
 31
0.0
  0
LINE
  5
362
100
AcDbEntity
  8
0
 62
5
100
AcDbLine
 10
619.099000
 20
176.967000
 30
0.0
 11
619.099000
 21
211.967000
 31
0.0
  0
LINE
  5
363
100
AcDbEntity
  8
0
 62
5
100
AcDbLine
 10
619.099000
 20
229.467000
 30
0.0
 11
619.099000
 21
264.467000
 31
0.0
  0
LINE
  5
364
100
AcDbEntity
  8
0
 62
5
100
AcDbLine
 10
619.099000
 20
281.967000
 30
0.0
 11
619.099000
 21
316.967000
 31
0.0
  0
LINE
  5
365
100
AcDbEntity
  8
0
 62
5
100
AcDbLine
 10
622.175000
 20
176.967000
 30
0.0
 11
622.175000
 21
185.717000
 31
0.0
  0
LINE
  5
366
100
AcDbEntity
  8
0
 62
5
100
AcDbLine
 10
622.175000
 20
203.217000
 30
0.0
 11
622.175000
 21
238.217000
 31
0.0
  0
LINE
  5
367
100
AcDbEntity
  8
0
 62
5
100
AcDbLine
 10
622.175000
 20
255.717000
 30
0.0
 11
622.175000
 21
290.717000
 31
0.0
  0
LINE
  5
368
100
AcDbEntity
  8
0
 62
5
100
AcDbLine
 10
622.175000
 20
308.217000
 30
0.0
 11
622.175000
 21
316.967000
 31
0.0
  0
LINE
  5
369
100
AcDbEntity
  8
0
 62
5
100
AcDbLine
 10
625.252000
 20
176.967000
 30
0.0
 11
625.252000
 21
211.967000
 31
0.0
  0
LINE
  5
36a
100
AcDbEntity
  8
0
 62
5
100
AcDbLine
 10
625.252000
 20
229.467000
 30
0.0
 11
625.252000
 21
264.467000
 31
0.0
  0
LINE
  5
36b
100
AcDbEntity
  8
0
 62
5
100
AcDbLine
 10
625.252000
 20
281.967000
 30
0.0
 11
625.252000
 21
316.967000
 31
0.0
  0
LINE
  5
36c
100
AcDbEntity
  8
0
 62
5
100
AcDbLine
 10
628.329000
 20
176.967000
 30
0.0
 11
628.329000
 21
185.717000
 31
0.0
  0
LINE
  5
36d
100
AcDbEntity
  8
0
 62
5
100
AcDbLine
 10
628.329000
 20
203.217000
 30
0.0
 11
628.329000
 21
238.217000
 31
0.0
  0
LINE
  5
36e
100
AcDbEntity
  8
0
 62
5
100
AcDbLine
 10
628.329000
 20
255.717000
 30
0.0
 11
628.329000
 21
290.717000
 31
0.0
  0
LINE
  5
36f
100
AcDbEntity
  8
0
 62
5
100
AcDbLine
 10
628.329000
 20
308.217000
 30
0.0
 11
628.329000
 21
316.967000
 31
0.0
  0
LINE
  5
370
100
AcDbEntity
  8
0
 62
5
100
AcDbLine
 10
631.405000
 20
176.967000
 30
0.0
 11
631.405000
 21
211.967000
 31
0.0
  0
LINE
  5
371
100
AcDbEntity
  8
0
 62
5
100
AcDbLine
 10
631.405000
 20
229.467000
 30
0.0
 11
631.405000
 21
264.467000
 31
0.0
  0
LINE
  5
372
100
AcDbEntity
  8
0
 62
5
100
AcDbLine
 10
631.405000
 20
281.967000
 30
0.0
 11
631.405000
 21
316.967000
 31
0.0
  0
LINE
  5
373
100
AcDbEntity
  8
0
 62
5
100
AcDbLine
 10
634.482000
 20
176.967000
 30
0.0
 11
634.482000
 21
185.717000
 31
0.0
  0
LINE
  5
374
100
AcDbEntity
  8
0
 62
5
100
AcDbLine
 10
634.482000
 20
203.217000
 30
0.0
 11
634.482000
 21
238.217000
 31
0.0
  0
LINE
  5
375
100
AcDbEntity
  8
0
 62
5
100
AcDbLine
 10
634.482000
 20
255.717000
 30
0.0
 11
634.482000
 21
290.717000
 31
0.0
  0
LINE
  5
376
100
AcDbEntity
  8
0
 62
5
100
AcDbLine
 10
634.482000
 20
308.217000
 30
0.0
 11
634.482000
 21
316.967000
 31
0.0
  0
LINE
  5
377
100
AcDbEntity
  8
0
 62
5
100
AcDbLine
 10
637.558000
 20
176.967000
 30
0.0
 11
637.558000
 21
211.967000
 31
0.0
  0
LINE
  5
378
100
AcDbEntity
  8
0
 62
5
100
AcDbLine
 10
637.558000
 20
229.467000
 30
0.0
 11
637.558000
 21
264.467000
 31
0.0
  0
LINE
  5
379
100
AcDbEntity
  8
0
 62
5
100
AcDbLine
 10
637.558000
 20
281.967000
 30
0.0
 11
637.558000
 21
316.967000
 31
0.0
  0
LINE
  5
37a
100
AcDbEntity
  8
0
 62
5
100
AcDbLine
 10
640.635000
 20
176.967000
 30
0.0
 11
640.635000
 21
185.717000
 31
0.0
  0
LINE
  5
37b
100
AcDbEntity
  8
0
 62
5
100
AcDbLine
 10
640.635000
 20
203.217000
 30
0.0
 11
640.635000
 21
238.217000
 31
0.0
  0
LINE
  5
37c
100
AcDbEntity
  8
0
 62
5
100
AcDbLine
 10
640.635000
 20
255.717000
 30
0.0
 11
640.635000
 21
290.717000
 31
0.0
  0
LINE
  5
37d
100
AcDbEntity
  8
0
 62
5
100
AcDbLine
 10
640.635000
 20
308.217000
 30
0.0
 11
640.635000
 21
316.967000
 31
0.0
  0
LINE
  5
37e
100
AcDbEntity
  8
0
 62
5
100
AcDbLine
 10
643.712000
 20
176.967000
 30
0.0
 11
643.712000
 21
211.967000
 31
0.0
  0
LINE
  5
37f
100
AcDbEntity
  8
0
 62
5
100
AcDbLine
 10
643.712000
 20
229.467000
 30
0.0
 11
643.712000
 21
264.467000
 31
0.0
  0
LINE
  5
380
100
AcDbEntity
  8
0
 62
5
100
AcDbLine
 10
643.712000
 20
281.967000
 30
0.0
 11
643.712000
 21
316.967000
 31
0.0
  0
LINE
  5
381
100
AcDbEntity
  8
0
 62
5
100
AcDbLine
 10
646.788000
 20
176.967000
 30
0.0
 11
646.788000
 21
185.717000
 31
0.0
  0
LINE
  5
382
100
AcDbEntity
  8
0
 62
5
100
AcDbLine
 10
646.788000
 20
203.217000
 30
0.0
 11
646.788000
 21
238.217000
 31
0.0
  0
LINE
  5
383
100
AcDbEntity
  8
0
 62
5
100
AcDbLine
 10
646.788000
 20
255.717000
 30
0.0
 11
646.788000
 21
290.717000
 31
0.0
  0
LINE
  5
384
100
AcDbEntity
  8
0
 62
5
100
AcDbLine
 10
646.788000
 20
308.217000
 30
0.0
 11
646.788000
 21
316.967000
 31
0.0
  0
LINE
  5
385
100
AcDbEntity
  8
0
 62
5
100
AcDbLine
 10
649.865000
 20
176.967000
 30
0.0
 11
649.865000
 21
211.967000
 31
0.0
  0
LINE
  5
386
100
AcDbEntity
  8
0
 62
5
100
AcDbLine
 10
649.865000
 20
229.467000
 30
0.0
 11
649.865000
 21
264.467000
 31
0.0
  0
LINE
  5
387
100
AcDbEntity
  8
0
 62
5
100
AcDbLine
 10
649.865000
 20
281.967000
 30
0.0
 11
649.865000
 21
316.967000
 31
0.0
  0
LINE
  5
388
100
AcDbEntity
  8
0
 62
5
100
AcDbLine
 10
652.942000
 20
176.967000
 30
0.0
 11
652.942000
 21
185.717000
 31
0.0
  0
LINE
  5
389
100
AcDbEntity
  8
0
 62
5
100
AcDbLine
 10
652.942000
 20
203.217000
 30
0.0
 11
652.942000
 21
238.217000
 31
0.0
  0
LINE
  5
38a
100
AcDbEntity
  8
0
 62
5
100
AcDbLine
 10
652.942000
 20
255.717000
 30
0.0
 11
652.942000
 21
290.717000
 31
0.0
  0
LINE
  5
38b
100
AcDbEntity
  8
0
 62
5
100
AcDbLine
 10
652.942000
 20
308.217000
 30
0.0
 11
652.942000
 21
316.967000
 31
0.0
  0
LINE
  5
38c
100
AcDbEntity
  8
0
 62
5
100
AcDbLine
 10
656.018000
 20
176.967000
 30
0.0
 11
656.018000
 21
211.967000
 31
0.0
  0
LINE
  5
38d
100
AcDbEntity
  8
0
 62
5
100
AcDbLine
 10
656.018000
 20
229.467000
 30
0.0
 11
656.018000
 21
264.467000
 31
0.0
  0
LINE
  5
38e
100
AcDbEntity
  8
0
 62
5
100
AcDbLine
 10
656.018000
 20
281.967000
 30
0.0
 11
656.018000
 21
316.967000
 31
0.0
  0
LINE
  5
38f
100
AcDbEntity
  8
0
 62
5
100
AcDbLine
 10
659.095000
 20
176.967000
 30
0.0
 11
659.095000
 21
185.717000
 31
0.0
  0
LINE
  5
390
100
AcDbEntity
  8
0
 62
5
100
AcDbLine
 10
659.095000
 20
203.217000
 30
0.0
 11
659.095000
 21
238.217000
 31
0.0
  0
LINE
  5
391
100
AcDbEntity
  8
0
 62
5
100
AcDbLine
 10
659.095000
 20
255.717000
 30
0.0
 11
659.095000
 21
290.717000
 31
0.0
  0
LINE
  5
392
100
AcDbEntity
  8
0
 62
5
100
AcDbLine
 10
659.095000
 20
308.217000
 30
0.0
 11
659.095000
 21
316.967000
 31
0.0
  0
LINE
  5
393
100
AcDbEntity
  8
0
 62
5
100
AcDbLine
 10
662.171000
 20
176.967000
 30
0.0
 11
662.171000
 21
211.967000
 31
0.0
  0
LINE
  5
394
100
AcDbEntity
  8
0
 62
5
100
AcDbLine
 10
662.171000
 20
229.467000
 30
0.0
 11
662.171000
 21
264.467000
 31
0.0
  0
LINE
  5
395
100
AcDbEntity
  8
0
 62
5
100
AcDbLine
 10
662.171000
 20
281.967000
 30
0.0
 11
662.171000
 21
316.967000
 31
0.0
  0
LINE
  5
396
100
AcDbEntity
  8
0
 62
5
100
AcDbLine
 10
665.248000
 20
176.967000
 30
0.0
 11
665.248000
 21
185.717000
 31
0.0
  0
LINE
  5
397
100
AcDbEntity
  8
0
 62
5
100
AcDbLine
 10
665.248000
 20
203.217000
 30
0.0
 11
665.248000
 21
238.217000
 31
0.0
  0
LINE
  5
398
100
AcDbEntity
  8
0
 62
5
100
AcDbLine
 10
665.248000
 20
255.717000
 30
0.0
 11
665.248000
 21
290.717000
 31
0.0
  0
LINE
  5
399
100
AcDbEntity
  8
0
 62
5
100
AcDbLine
 10
665.248000
 20
308.217000
 30
0.0
 11
665.248000
 21
316.967000
 31
0.0
  0
LINE
  5
39a
100
AcDbEntity
  8
0
 62
5
100
AcDbLine
 10
668.325000
 20
176.967000
 30
0.0
 11
668.325000
 21
211.967000
 31
0.0
  0
LINE
  5
39b
100
AcDbEntity
  8
0
 62
5
100
AcDbLine
 10
668.325000
 20
229.467000
 30
0.0
 11
668.325000
 21
264.467000
 31
0.0
  0
LINE
  5
39c
100
AcDbEntity
  8
0
 62
5
100
AcDbLine
 10
668.325000
 20
281.967000
 30
0.0
 11
668.325000
 21
316.967000
 31
0.0
  0
LINE
  5
39d
100
AcDbEntity
  8
0
 62
5
100
AcDbLine
 10
671.401000
 20
176.967000
 30
0.0
 11
671.401000
 21
185.717000
 31
0.0
  0
LINE
  5
39e
100
AcDbEntity
  8
0
 62
5
100
AcDbLine
 10
671.401000
 20
203.217000
 30
0.0
 11
671.401000
 21
238.217000
 31
0.0
  0
LINE
  5
39f
100
AcDbEntity
  8
0
 62
5
100
AcDbLine
 10
671.401000
 20
255.717000
 30
0.0
 11
671.401000
 21
290.717000
 31
0.0
  0
LINE
  5
3a0
100
AcDbEntity
  8
0
 62
5
100
AcDbLine
 10
671.401000
 20
308.217000
 30
0.0
 11
671.401000
 21
316.967000
 31
0.0
  0
LINE
  5
3a1
100
AcDbEntity
  8
0
 62
5
100
AcDbLine
 10
674.478000
 20
176.967000
 30
0.0
 11
674.478000
 21
211.967000
 31
0.0
  0
LINE
  5
3a2
100
AcDbEntity
  8
0
 62
5
100
AcDbLine
 10
674.478000
 20
229.467000
 30
0.0
 11
674.478000
 21
264.467000
 31
0.0
  0
LINE
  5
3a3
100
AcDbEntity
  8
0
 62
5
100
AcDbLine
 10
674.478000
 20
281.967000
 30
0.0
 11
674.478000
 21
316.967000
 31
0.0
  0
LINE
  5
3a4
100
AcDbEntity
  8
0
 62
1
100
AcDbLine
 10
379.535260
 20
313.967000
 30
0.0
 11
384.961000
 21
313.967000
 31
0.0
  0
LINE
  5
3a5
100
AcDbEntity
  8
0
 62
1
100
AcDbLine
 10
384.961000
 20
313.967000
 30
0.0
 11
384.961000
 21
316.967000
 31
0.0
  0
LINE
  5
3a6
100
AcDbEntity
  8
0
 62
1
100
AcDbLine
 10
384.961000
 20
316.967000
 30
0.0
 11
397.805000
 21
316.967000
 31
0.0
  0
LINE
  5
3a7
100
AcDbEntity
  8
0
 62
1
100
AcDbLine
 10
397.805000
 20
316.967000
 30
0.0
 11
397.805000
 21
313.967000
 31
0.0
  0
LINE
  5
3a8
100
AcDbEntity
  8
0
 62
1
100
AcDbLine
 10
397.805000
 20
313.967000
 30
0.0
 11
410.648000
 21
313.967000
 31
0.0
  0
LINE
  5
3a9
100
AcDbEntity
  8
0
 62
1
100
AcDbLine
 10
410.648000
 20
313.967000
 30
0.0
 11
410.648000
 21
316.967000
 31
0.0
  0
LINE
  5
3aa
100
AcDbEntity
  8
0
 62
1
100
AcDbLine
 10
410.648000
 20
316.967000
 30
0.0
 11
423.492000
 21
316.967000
 31
0.0
  0
LINE
  5
3ab
100
AcDbEntity
  8
0
 62
1
100
AcDbLine
 10
423.492000
 20
316.967000
 30
0.0
 11
423.492000
 21
313.967000
 31
0.0
  0
LINE
  5
3ac
100
AcDbEntity
  8
0
 62
1
100
AcDbLine
 10
423.492000
 20
313.967000
 30
0.0
 11
436.336000
 21
313.967000
 31
0.0
  0
LINE
  5
3ad
100
AcDbEntity
  8
0
 62
1
100
AcDbLine
 10
436.336000
 20
313.967000
 30
0.0
 11
436.336000
 21
316.967000
 31
0.0
  0
LINE
  5
3ae
100
AcDbEntity
  8
0
 62
1
100
AcDbLine
 10
436.336000
 20
316.967000
 30
0.0
 11
458.139000
 21
316.967000
 31
0.0
  0
LINE
  5
3af
100
AcDbEntity
  8
0
 62
1
100
AcDbLine
 10
458.139000
 20
316.967000
 30
0.0
 11
528.825000
 21
316.967000
 31
0.0
  0
LINE
  5
3b0
100
AcDbEntity
  8
0
 62
1
100
AcDbLine
 10
528.825000
 20
316.967000
 30
0.0
 11
535.699000
 21
316.967000
 31
0.0
  0
LINE
  5
3b1
100
AcDbEntity
  8
0
 62
1
100
AcDbLine
 10
535.699000
 20
316.967000
 30
0.0
 11
548.543000
 21
316.967000
 31
0.0
  0
LINE
  5
3b2
100
AcDbEntity
  8
0
 62
1
100
AcDbLine
 10
548.543000
 20
316.967000
 30
0.0
 11
548.543000
 21
313.967000
 31
0.0
  0
LINE
  5
3b3
100
AcDbEntity
  8
0
 62
1
100
AcDbLine
 10
548.543000
 20
313.967000
 30
0.0
 11
561.387000
 21
313.967000
 31
0.0
  0
LINE
  5
3b4
100
AcDbEntity
  8
0
 62
1
100
AcDbLine
 10
561.387000
 20
313.967000
 30
0.0
 11
561.387000
 21
316.967000
 31
0.0
  0
LINE
  5
3b5
100
AcDbEntity
  8
0
 62
1
100
AcDbLine
 10
561.387000
 20
316.967000
 30
0.0
 11
574.230000
 21
316.967000
 31
0.0
  0
LINE
  5
3b6
100
AcDbEntity
  8
0
 62
1
100
AcDbLine
 10
574.230000
 20
316.967000
 30
0.0
 11
574.230000
 21
313.967000
 31
0.0
  0
LINE
  5
3b7
100
AcDbEntity
  8
0
 62
1
100
AcDbLine
 10
574.230000
 20
313.967000
 30
0.0
 11
587.074000
 21
313.967000
 31
0.0
  0
LINE
  5
3b8
100
AcDbEntity
  8
0
 62
1
100
AcDbLine
 10
587.074000
 20
313.967000
 30
0.0
 11
587.074000
 21
316.967000
 31
0.0
  0
LINE
  5
3b9
100
AcDbEntity
  8
0
 62
1
100
AcDbLine
 10
587.074000
 20
316.967000
 30
0.0
 11
606.792000
 21
316.967000
 31
0.0
  0
LINE
  5
3ba
100
AcDbEntity
  8
0
 62
1
100
AcDbLine
 10
606.792000
 20
316.967000
 30
0.0
 11
677.478000
 21
316.967000
 31
0.0
  0
LINE
  5
3bb
100
AcDbEntity
  8
0
 62
1
100
AcDbLine
 10
677.478000
 20
316.967000
 30
0.0
 11
685.169000
 21
316.967000
 31
0.0
  0
LINE
  5
3bc
100
AcDbEntity
  8
0
 62
1
100
AcDbLine
 10
685.169000
 20
316.967000
 30
0.0
 11
698.012000
 21
316.967000
 31
0.0
  0
LINE
  5
3bd
100
AcDbEntity
  8
0
 62
1
100
AcDbLine
 10
698.012000
 20
316.967000
 30
0.0
 11
698.012000
 21
313.967000
 31
0.0
  0
LINE
  5
3be
100
AcDbEntity
  8
0
 62
1
100
AcDbLine
 10
698.012000
 20
313.967000
 30
0.0
 11
710.856000
 21
313.967000
 31
0.0
  0
LINE
  5
3bf
100
AcDbEntity
  8
0
 62
1
100
AcDbLine
 10
710.856000
 20
313.967000
 30
0.0
 11
710.856000
 21
316.967000
 31
0.0
  0
LINE
  5
3c0
100
AcDbEntity
  8
0
 62
1
100
AcDbLine
 10
710.856000
 20
316.967000
 30
0.0
 11
723.700000
 21
316.967000
 31
0.0
  0
LINE
  5
3c1
100
AcDbEntity
  8
0
 62
1
100
AcDbLine
 10
723.700000
 20
316.967000
 30
0.0
 11
723.700000
 21
313.967000
 31
0.0
  0
LINE
  5
3c2
100
AcDbEntity
  8
0
 62
1
100
AcDbLine
 10
723.700000
 20
313.967000
 30
0.0
 11
736.544000
 21
313.967000
 31
0.0
  0
LINE
  5
3c3
100
AcDbEntity
  8
0
 62
1
100
AcDbLine
 10
736.544000
 20
313.967000
 30
0.0
 11
736.544000
 21
316.967000
 31
0.0
  0
LINE
  5
3c4
100
AcDbEntity
  8
0
 62
1
100
AcDbLine
 10
736.544000
 20
316.967000
 30
0.0
 11
757.078000
 21
316.967000
 31
0.0
  0
LINE
  5
3c5
100
AcDbEntity
  8
0
 62
1
100
AcDbLine
 10
757.078000
 20
316.967000
 30
0.0
 11
757.078000
 21
176.967000
 31
0.0
  0
LINE
  5
3c6
100
AcDbEntity
  8
0
 62
1
100
AcDbLine
 10
757.078000
 20
176.967000
 30
0.0
 11
749.387000
 21
176.967000
 31
0.0
  0
LINE
  5
3c7
100
AcDbEntity
  8
0
 62
1
100
AcDbLine
 10
749.387000
 20
176.967000
 30
0.0
 11
736.544000
 21
176.967000
 31
0.0
  0
LINE
  5
3c8
100
AcDbEntity
  8
0
 62
1
100
AcDbLine
 10
736.544000
 20
176.967000
 30
0.0
 11
736.544000
 21
179.967000
 31
0.0
  0
LINE
  5
3c9
100
AcDbEntity
  8
0
 62
1
100
AcDbLine
 10
736.544000
 20
179.967000
 30
0.0
 11
723.700000
 21
179.967000
 31
0.0
  0
LINE
  5
3ca
100
AcDbEntity
  8
0
 62
1
100
AcDbLine
 10
723.700000
 20
179.967000
 30
0.0
 11
723.700000
 21
176.967000
 31
0.0
  0
LINE
  5
3cb
100
AcDbEntity
  8
0
 62
1
100
AcDbLine
 10
723.700000
 20
176.967000
 30
0.0
 11
710.856000
 21
176.967000
 31
0.0
  0
LINE
  5
3cc
100
AcDbEntity
  8
0
 62
1
100
AcDbLine
 10
710.856000
 20
176.967000
 30
0.0
 11
710.856000
 21
179.967000
 31
0.0
  0
LINE
  5
3cd
100
AcDbEntity
  8
0
 62
1
100
AcDbLine
 10
710.856000
 20
179.967000
 30
0.0
 11
698.012000
 21
179.967000
 31
0.0
  0
LINE
  5
3ce
100
AcDbEntity
  8
0
 62
1
100
AcDbLine
 10
698.012000
 20
179.967000
 30
0.0
 11
698.012000
 21
176.967000
 31
0.0
  0
LINE
  5
3cf
100
AcDbEntity
  8
0
 62
1
100
AcDbLine
 10
698.012000
 20
176.967000
 30
0.0
 11
677.478000
 21
176.967000
 31
0.0
  0
LINE
  5
3d0
100
AcDbEntity
  8
0
 62
1
100
AcDbLine
 10
677.478000
 20
176.967000
 30
0.0
 11
606.792000
 21
176.967000
 31
0.0
  0
LINE
  5
3d1
100
AcDbEntity
  8
0
 62
1
100
AcDbLine
 10
606.792000
 20
176.967000
 30
0.0
 11
599.918000
 21
176.967000
 31
0.0
  0
LINE
  5
3d2
100
AcDbEntity
  8
0
 62
1
100
AcDbLine
 10
599.918000
 20
176.967000
 30
0.0
 11
587.074000
 21
176.967000
 31
0.0
  0
LINE
  5
3d3
100
AcDbEntity
  8
0
 62
1
100
AcDbLine
 10
587.074000
 20
176.967000
 30
0.0
 11
587.074000
 21
179.967000
 31
0.0
  0
LINE
  5
3d4
100
AcDbEntity
  8
0
 62
1
100
AcDbLine
 10
587.074000
 20
179.967000
 30
0.0
 11
574.230000
 21
179.967000
 31
0.0
  0
LINE
  5
3d5
100
AcDbEntity
  8
0
 62
1
100
AcDbLine
 10
574.230000
 20
179.967000
 30
0.0
 11
574.230000
 21
176.967000
 31
0.0
  0
LINE
  5
3d6
100
AcDbEntity
  8
0
 62
1
100
AcDbLine
 10
574.230000
 20
176.967000
 30
0.0
 11
561.387000
 21
176.967000
 31
0.0
  0
LINE
  5
3d7
100
AcDbEntity
  8
0
 62
1
100
AcDbLine
 10
561.387000
 20
176.967000
 30
0.0
 11
561.387000
 21
179.967000
 31
0.0
  0
LINE
  5
3d8
100
AcDbEntity
  8
0
 62
1
100
AcDbLine
 10
561.387000
 20
179.967000
 30
0.0
 11
548.543000
 21
179.967000
 31
0.0
  0
LINE
  5
3d9
100
AcDbEntity
  8
0
 62
1
100
AcDbLine
 10
548.543000
 20
179.967000
 30
0.0
 11
548.543000
 21
176.967000
 31
0.0
  0
LINE
  5
3da
100
AcDbEntity
  8
0
 62
1
100
AcDbLine
 10
548.543000
 20
176.967000
 30
0.0
 11
528.825000
 21
176.967000
 31
0.0
  0
LINE
  5
3db
100
AcDbEntity
  8
0
 62
1
100
AcDbLine
 10
528.825000
 20
176.967000
 30
0.0
 11
458.139000
 21
176.967000
 31
0.0
  0
LINE
  5
3dc
100
AcDbEntity
  8
0
 62
1
100
AcDbLine
 10
458.139000
 20
176.967000
 30
0.0
 11
449.180000
 21
176.967000
 31
0.0
  0
LINE
  5
3dd
100
AcDbEntity
  8
0
 62
1
100
AcDbLine
 10
449.180000
 20
176.967000
 30
0.0
 11
436.336000
 21
176.967000
 31
0.0
  0
LINE
  5
3de
100
AcDbEntity
  8
0
 62
1
100
AcDbLine
 10
436.336000
 20
176.967000
 30
0.0
 11
436.336000
 21
179.967000
 31
0.0
  0
LINE
  5
3df
100
AcDbEntity
  8
0
 62
1
100
AcDbLine
 10
436.336000
 20
179.967000
 30
0.0
 11
423.492000
 21
179.967000
 31
0.0
  0
LINE
  5
3e0
100
AcDbEntity
  8
0
 62
1
100
AcDbLine
 10
423.492000
 20
179.967000
 30
0.0
 11
423.492000
 21
176.967000
 31
0.0
  0
LINE
  5
3e1
100
AcDbEntity
  8
0
 62
1
100
AcDbLine
 10
423.492000
 20
176.967000
 30
0.0
 11
410.648000
 21
176.967000
 31
0.0
  0
LINE
  5
3e2
100
AcDbEntity
  8
0
 62
1
100
AcDbLine
 10
410.648000
 20
176.967000
 30
0.0
 11
410.648000
 21
179.967000
 31
0.0
  0
LINE
  5
3e3
100
AcDbEntity
  8
0
 62
1
100
AcDbLine
 10
410.648000
 20
179.967000
 30
0.0
 11
397.805000
 21
179.967000
 31
0.0
  0
LINE
  5
3e4
100
AcDbEntity
  8
0
 62
1
100
AcDbLine
 10
397.805000
 20
179.967000
 30
0.0
 11
397.805000
 21
176.967000
 31
0.0
  0
LINE
  5
3e5
100
AcDbEntity
  8
0
 62
1
100
AcDbLine
 10
397.805000
 20
176.967000
 30
0.0
 11
384.961000
 21
176.967000
 31
0.0
  0
LINE
  5
3e6
100
AcDbEntity
  8
0
 62
1
100
AcDbLine
 10
384.961000
 20
176.967000
 30
0.0
 11
384.961000
 21
179.967000
 31
0.0
  0
LINE
  5
3e7
100
AcDbEntity
  8
0
 62
1
100
AcDbLine
 10
384.961000
 20
179.967000
 30
0.0
 11
379.973610
 21
179.967000
 31
0.0
  0
LINE
  5
3e8
100
AcDbEntity
  8
0
 62
1
100
AcDbLine
 10
379.973610
 20
179.967000
 30
0.0
 11
379.535260
 21
313.967000
 31
0.0
  0
LINE
  5
3e9
100
AcDbEntity
  8
0
 62
1
100
AcDbLine
 10
379.418220
 20
179.967000
 30
0.0
 11
372.117000
 21
179.967000
 31
0.0
  0
LINE
  5
3ea
100
AcDbEntity
  8
0
 62
1
100
AcDbLine
 10
372.117000
 20
179.967000
 30
0.0
 11
372.117000
 21
176.967000
 31
0.0
  0
LINE
  5
3eb
100
AcDbEntity
  8
0
 62
1
100
AcDbLine
 10
372.117000
 20
176.967000
 30
0.0
 11
359.273000
 21
176.967000
 31
0.0
  0
LINE
  5
3ec
100
AcDbEntity
  8
0
 62
1
100
AcDbLine
 10
359.273000
 20
176.967000
 30
0.0
 11
359.273000
 21
179.967000
 31
0.0
  0
LINE
  5
3ed
100
AcDbEntity
  8
0
 62
1
100
AcDbLine
 10
359.273000
 20
179.967000
 30
0.0
 11
346.430000
 21
179.967000
 31
0.0
  0
LINE
  5
3ee
100
AcDbEntity
  8
0
 62
1
100
AcDbLine
 10
346.430000
 20
179.967000
 30
0.0
 11
346.430000
 21
176.967000
 31
0.0
  0
LINE
  5
3ef
100
AcDbEntity
  8
0
 62
1
100
AcDbLine
 10
346.430000
 20
176.967000
 30
0.0
 11
333.586000
 21
176.967000
 31
0.0
  0
LINE
  5
3f0
100
AcDbEntity
  8
0
 62
1
100
AcDbLine
 10
333.586000
 20
176.967000
 30
0.0
 11
333.586000
 21
179.967000
 31
0.0
  0
LINE
  5
3f1
100
AcDbEntity
  8
0
 62
1
100
AcDbLine
 10
333.586000
 20
179.967000
 30
0.0
 11
320.742000
 21
179.967000
 31
0.0
  0
LINE
  5
3f2
100
AcDbEntity
  8
0
 62
1
100
AcDbLine
 10
320.742000
 20
179.967000
 30
0.0
 11
320.742000
 21
176.967000
 31
0.0
  0
LINE
  5
3f3
100
AcDbEntity
  8
0
 62
1
100
AcDbLine
 10
320.742000
 20
176.967000
 30
0.0
 11
298.939000
 21
176.967000
 31
0.0
  0
LINE
  5
3f4
100
AcDbEntity
  8
0
 62
1
100
AcDbLine
 10
298.939000
 20
176.967000
 30
0.0
 11
228.253000
 21
176.967000
 31
0.0
  0
LINE
  5
3f5
100
AcDbEntity
  8
0
 62
1
100
AcDbLine
 10
228.253000
 20
176.967000
 30
0.0
 11
221.379000
 21
176.967000
 31
0.0
  0
LINE
  5
3f6
100
AcDbEntity
  8
0
 62
1
100
AcDbLine
 10
221.379000
 20
176.967000
 30
0.0
 11
208.535000
 21
176.967000
 31
0.0
  0
LINE
  5
3f7
100
AcDbEntity
  8
0
 62
1
100
AcDbLine
 10
208.535000
 20
176.967000
 30
0.0
 11
208.535000
 21
179.967000
 31
0.0
  0
LINE
  5
3f8
100
AcDbEntity
  8
0
 62
1
100
AcDbLine
 10
208.535000
 20
179.967000
 30
0.0
 11
195.691000
 21
179.967000
 31
0.0
  0
LINE
  5
3f9
100
AcDbEntity
  8
0
 62
1
100
AcDbLine
 10
195.691000
 20
179.967000
 30
0.0
 11
195.691000
 21
176.967000
 31
0.0
  0
LINE
  5
3fa
100
AcDbEntity
  8
0
 62
1
100
AcDbLine
 10
195.691000
 20
176.967000
 30
0.0
 11
182.848000
 21
176.967000
 31
0.0
  0
LINE
  5
3fb
100
AcDbEntity
  8
0
 62
1
100
AcDbLine
 10
182.848000
 20
176.967000
 30
0.0
 11
182.848000
 21
179.967000
 31
0.0
  0
LINE
  5
3fc
100
AcDbEntity
  8
0
 62
1
100
AcDbLine
 10
182.848000
 20
179.967000
 30
0.0
 11
170.004000
 21
179.967000
 31
0.0
  0
LINE
  5
3fd
100
AcDbEntity
  8
0
 62
1
100
AcDbLine
 10
170.004000
 20
179.967000
 30
0.0
 11
170.004000
 21
176.967000
 31
0.0
  0
LINE
  5
3fe
100
AcDbEntity
  8
0
 62
1
100
AcDbLine
 10
170.004000
 20
176.967000
 30
0.0
 11
150.286000
 21
176.967000
 31
0.0
  0
LINE
  5
3ff
100
AcDbEntity
  8
0
 62
1
100
AcDbLine
 10
150.286000
 20
176.967000
 30
0.0
 11
79.600000
 21
176.967000
 31
0.0
  0
LINE
  5
400
100
AcDbEntity
  8
0
 62
1
100
AcDbLine
 10
79.600000
 20
176.967000
 30
0.0
 11
71.909000
 21
176.967000
 31
0.0
  0
LINE
  5
401
100
AcDbEntity
  8
0
 62
1
100
AcDbLine
 10
71.909000
 20
176.967000
 30
0.0
 11
59.066000
 21
176.967000
 31
0.0
  0
LINE
  5
402
100
AcDbEntity
  8
0
 62
1
100
AcDbLine
 10
59.066000
 20
176.967000
 30
0.0
 11
59.066000
 21
179.967000
 31
0.0
  0
LINE
  5
403
100
AcDbEntity
  8
0
 62
1
100
AcDbLine
 10
59.066000
 20
179.967000
 30
0.0
 11
46.222000
 21
179.967000
 31
0.0
  0
LINE
  5
404
100
AcDbEntity
  8
0
 62
1
100
AcDbLine
 10
46.222000
 20
179.967000
 30
0.0
 11
46.222000
 21
176.967000
 31
0.0
  0
LINE
  5
405
100
AcDbEntity
  8
0
 62
1
100
AcDbLine
 10
46.222000
 20
176.967000
 30
0.0
 11
33.378000
 21
176.967000
 31
0.0
  0
LINE
  5
406
100
AcDbEntity
  8
0
 62
1
100
AcDbLine
 10
33.378000
 20
176.967000
 30
0.0
 11
33.378000
 21
179.967000
 31
0.0
  0
LINE
  5
407
100
AcDbEntity
  8
0
 62
1
100
AcDbLine
 10
33.378000
 20
179.967000
 30
0.0
 11
20.534000
 21
179.967000
 31
0.0
  0
LINE
  5
408
100
AcDbEntity
  8
0
 62
1
100
AcDbLine
 10
20.534000
 20
179.967000
 30
0.0
 11
20.534000
 21
176.967000
 31
0.0
  0
LINE
  5
409
100
AcDbEntity
  8
0
 62
1
100
AcDbLine
 10
20.534000
 20
176.967000
 30
0.0
 11
0.000000
 21
176.967000
 31
0.0
  0
LINE
  5
40a
100
AcDbEntity
  8
0
 62
1
100
AcDbLine
 10
0.000000
 20
176.967000
 30
0.0
 11
0.000000
 21
316.967000
 31
0.0
  0
LINE
  5
40b
100
AcDbEntity
  8
0
 62
1
100
AcDbLine
 10
0.000000
 20
316.967000
 30
0.0
 11
7.691000
 21
316.967000
 31
0.0
  0
LINE
  5
40c
100
AcDbEntity
  8
0
 62
1
100
AcDbLine
 10
7.691000
 20
316.967000
 30
0.0
 11
20.534000
 21
316.967000
 31
0.0
  0
LINE
  5
40d
100
AcDbEntity
  8
0
 62
1
100
AcDbLine
 10
20.534000
 20
316.967000
 30
0.0
 11
20.534000
 21
313.967000
 31
0.0
  0
LINE
  5
40e
100
AcDbEntity
  8
0
 62
1
100
AcDbLine
 10
20.534000
 20
313.967000
 30
0.0
 11
33.378000
 21
313.967000
 31
0.0
  0
LINE
  5
40f
100
AcDbEntity
  8
0
 62
1
100
AcDbLine
 10
33.378000
 20
313.967000
 30
0.0
 11
33.378000
 21
316.967000
 31
0.0
  0
LINE
  5
410
100
AcDbEntity
  8
0
 62
1
100
AcDbLine
 10
33.378000
 20
316.967000
 30
0.0
 11
46.222000
 21
316.967000
 31
0.0
  0
LINE
  5
411
100
AcDbEntity
  8
0
 62
1
100
AcDbLine
 10
46.222000
 20
316.967000
 30
0.0
 11
46.222000
 21
313.967000
 31
0.0
  0
LINE
  5
412
100
AcDbEntity
  8
0
 62
1
100
AcDbLine
 10
46.222000
 20
313.967000
 30
0.0
 11
59.066000
 21
313.967000
 31
0.0
  0
LINE
  5
413
100
AcDbEntity
  8
0
 62
1
100
AcDbLine
 10
59.066000
 20
313.967000
 30
0.0
 11
59.066000
 21
316.967000
 31
0.0
  0
LINE
  5
414
100
AcDbEntity
  8
0
 62
1
100
AcDbLine
 10
59.066000
 20
316.967000
 30
0.0
 11
79.600000
 21
316.967000
 31
0.0
  0
LINE
  5
415
100
AcDbEntity
  8
0
 62
1
100
AcDbLine
 10
79.600000
 20
316.967000
 30
0.0
 11
150.286000
 21
316.967000
 31
0.0
  0
LINE
  5
416
100
AcDbEntity
  8
0
 62
1
100
AcDbLine
 10
150.286000
 20
316.967000
 30
0.0
 11
157.160000
 21
316.967000
 31
0.0
  0
LINE
  5
417
100
AcDbEntity
  8
0
 62
1
100
AcDbLine
 10
157.160000
 20
316.967000
 30
0.0
 11
170.004000
 21
316.967000
 31
0.0
  0
LINE
  5
418
100
AcDbEntity
  8
0
 62
1
100
AcDbLine
 10
170.004000
 20
316.967000
 30
0.0
 11
170.004000
 21
313.967000
 31
0.0
  0
LINE
  5
419
100
AcDbEntity
  8
0
 62
1
100
AcDbLine
 10
170.004000
 20
313.967000
 30
0.0
 11
182.848000
 21
313.967000
 31
0.0
  0
LINE
  5
41a
100
AcDbEntity
  8
0
 62
1
100
AcDbLine
 10
182.848000
 20
313.967000
 30
0.0
 11
182.848000
 21
316.967000
 31
0.0
  0
LINE
  5
41b
100
AcDbEntity
  8
0
 62
1
100
AcDbLine
 10
182.848000
 20
316.967000
 30
0.0
 11
195.691000
 21
316.967000
 31
0.0
  0
LINE
  5
41c
100
AcDbEntity
  8
0
 62
1
100
AcDbLine
 10
195.691000
 20
316.967000
 30
0.0
 11
195.691000
 21
313.967000
 31
0.0
  0
LINE
  5
41d
100
AcDbEntity
  8
0
 62
1
100
AcDbLine
 10
195.691000
 20
313.967000
 30
0.0
 11
208.535000
 21
313.967000
 31
0.0
  0
LINE
  5
41e
100
AcDbEntity
  8
0
 62
1
100
AcDbLine
 10
208.535000
 20
313.967000
 30
0.0
 11
208.535000
 21
316.967000
 31
0.0
  0
LINE
  5
41f
100
AcDbEntity
  8
0
 62
1
100
AcDbLine
 10
208.535000
 20
316.967000
 30
0.0
 11
228.253000
 21
316.967000
 31
0.0
  0
LINE
  5
420
100
AcDbEntity
  8
0
 62
1
100
AcDbLine
 10
228.253000
 20
316.967000
 30
0.0
 11
298.939000
 21
316.967000
 31
0.0
  0
LINE
  5
421
100
AcDbEntity
  8
0
 62
1
100
AcDbLine
 10
298.939000
 20
316.967000
 30
0.0
 11
307.898000
 21
316.967000
 31
0.0
  0
LINE
  5
422
100
AcDbEntity
  8
0
 62
1
100
AcDbLine
 10
307.898000
 20
316.967000
 30
0.0
 11
320.742000
 21
316.967000
 31
0.0
  0
LINE
  5
423
100
AcDbEntity
  8
0
 62
1
100
AcDbLine
 10
320.742000
 20
316.967000
 30
0.0
 11
320.742000
 21
313.967000
 31
0.0
  0
LINE
  5
424
100
AcDbEntity
  8
0
 62
1
100
AcDbLine
 10
320.742000
 20
313.967000
 30
0.0
 11
333.586000
 21
313.967000
 31
0.0
  0
LINE
  5
425
100
AcDbEntity
  8
0
 62
1
100
AcDbLine
 10
333.586000
 20
313.967000
 30
0.0
 11
333.586000
 21
316.967000
 31
0.0
  0
LINE
  5
426
100
AcDbEntity
  8
0
 62
1
100
AcDbLine
 10
333.586000
 20
316.967000
 30
0.0
 11
346.430000
 21
316.967000
 31
0.0
  0
LINE
  5
427
100
AcDbEntity
  8
0
 62
1
100
AcDbLine
 10
346.430000
 20
316.967000
 30
0.0
 11
346.430000
 21
313.967000
 31
0.0
  0
LINE
  5
428
100
AcDbEntity
  8
0
 62
1
100
AcDbLine
 10
346.430000
 20
313.967000
 30
0.0
 11
359.273000
 21
313.967000
 31
0.0
  0
LINE
  5
429
100
AcDbEntity
  8
0
 62
1
100
AcDbLine
 10
359.273000
 20
313.967000
 30
0.0
 11
359.273000
 21
316.967000
 31
0.0
  0
LINE
  5
42a
100
AcDbEntity
  8
0
 62
1
100
AcDbLine
 10
359.273000
 20
316.967000
 30
0.0
 11
372.117000
 21
316.967000
 31
0.0
  0
LINE
  5
42b
100
AcDbEntity
  8
0
 62
1
100
AcDbLine
 10
372.117000
 20
316.967000
 30
0.0
 11
372.117000
 21
313.967000
 31
0.0
  0
LINE
  5
42c
100
AcDbEntity
  8
0
 62
1
100
AcDbLine
 10
372.117000
 20
313.967000
 30
0.0
 11
379.409850
 21
313.967000
 31
0.0
  0
LINE
  5
42d
100
AcDbEntity
  8
0
 62
1
100
AcDbLine
 10
379.409850
 20
313.967000
 30
0.0
 11
379.418220
 21
179.967000
 31
0.0
  0
ENDSEC
  0
SECTION
  2
OBJECTS
  0
DICTIONARY
  5
C
330
0
100
AcDbDictionary
  3
ACAD_GROUP
350
D
  3
ACAD_MLINESTYLE
350
17
  0
DICTIONARY
  5
D
330
C
100
AcDbDictionary
  0
DICTIONARY
  5
1A
330
C
100
AcDbDictionary
  0
DICTIONARY
  5
17
330
C
100
AcDbDictionary
  3
STANDARD
350
18
  0
DICTIONARY
  5
19
330
C
100
AcDbDictionary
  0
ENDSEC
  0
EOF
