999
"DXF R12 Output" (www.mydxf.blogspot.com)
 0 
SECTION
 2 
HEADER
 9 
$ACADVER
 1 
AC1009
 9 
$EXTMIN
 10 
 0 
 20 
 0 
 9 
$EXTMAX
 10 
 8.5 
 20 
 11 
 0 
ENDSEC
 0 
SECTION
 2 
ENTITIES
0
LINE
8
Layer 1
10
3.000000
20
239.469000
11
-3.000000
21
233.469000
0
LINE
8
Layer 1
10
0.000000
20
241.469000
11
0.000000
21
231.469000
0
LINE
8
Layer 1
10
8.000000
20
232.469000
11
4.000000
21
228.469000
0
LINE
8
Layer 1
10
6.000000
20
234.469000
11
2.000000
21
230.469000
0
LINE
8
Layer 1
10
4.000000
20
236.469000
11
0.000000
21
232.469000
0
LINE
8
Layer 1
10
273.721000
20
-1018.120000
11
273.712000
21
-1018.120000
0
LINE
8
Layer 1
10
273.712000
20
-1018.120000
11
273.712000
21
-998.508000
0
LINE
8
Layer 1
10
273.712000
20
-998.508000
11
273.721000
21
-998.508000
0
LINE
8
Layer 1
10
273.721000
20
-998.508000
11
273.721000
21
-974.924000
0
LINE
8
Layer 1
10
273.721000
20
-974.924000
11
273.712000
21
-974.924000
0
LINE
8
Layer 1
10
273.712000
20
-974.924000
11
273.712000
21
-956.880000
0
LINE
8
Layer 1
10
273.712000
20
-956.880000
11
273.721000
21
-956.880000
0
LINE
8
Layer 1
10
273.721000
20
-956.880000
11
273.721000
21
-933.295000
0
LINE
8
Layer 1
10
273.721000
20
-933.295000
11
239.239000
21
-933.295000
0
LINE
8
Layer 1
10
239.239000
20
-933.295000
11
239.239000
21
-1041.700000
0
LINE
8
Layer 1
10
239.239000
20
-1041.700000
11
273.721000
21
-1041.700000
0
LINE
8
Layer 1
10
273.721000
20
-1041.700000
11
273.721000
21
-1018.110000
0
LINE
8
Layer 1
10
326.606000
20
-993.891000
11
324.892253
21
-992.318231
0
LINE
8
Layer 1
10
324.892253
20
-992.318231
11
323.032800
21
-990.903186
0
LINE
8
Layer 1
10
323.032800
20
-990.903186
11
321.027650
21
-989.645807
0
LINE
8
Layer 1
10
321.027650
20
-989.645807
11
318.876809
21
-988.546038
0
LINE
8
Layer 1
10
318.876809
20
-988.546038
11
316.580285
21
-987.603819
0
LINE
8
Layer 1
10
316.580285
20
-987.603819
11
314.138088
21
-986.819095
0
LINE
8
Layer 1
10
314.138088
20
-986.819095
11
311.550223
21
-986.191808
0
LINE
8
Layer 1
10
311.550223
20
-986.191808
11
308.816700
21
-985.721900
0
LINE
8
Layer 1
10
308.816700
20
-985.721900
11
308.816700
21
-985.437500
0
LINE
8
Layer 1
10
308.816700
20
-985.437500
11
313.406787
21
-983.945602
0
LINE
8
Layer 1
10
313.406787
20
-983.945602
11
315.468364
21
-983.039884
0
LINE
8
Layer 1
10
315.468364
20
-983.039884
11
317.374355
21
-982.027638
0
LINE
8
Layer 1
10
317.374355
20
-982.027638
11
319.124801
21
-980.908849
0
LINE
8
Layer 1
10
319.124801
20
-980.908849
11
320.719746
21
-979.683505
0
LINE
8
Layer 1
10
320.719746
20
-979.683505
11
322.159231
21
-978.351593
0
LINE
8
Layer 1
10
322.159231
20
-978.351593
11
323.443300
21
-976.913100
0
LINE
8
Layer 1
10
323.443300
20
-976.913100
11
324.573480
21
-975.365828
0
LINE
8
Layer 1
10
324.573480
20
-975.365828
11
325.553060
21
-973.707577
0
LINE
8
Layer 1
10
325.553060
20
-973.707577
11
326.382011
21
-971.938327
0
LINE
8
Layer 1
10
326.382011
20
-971.938327
11
327.060306
21
-970.058062
0
LINE
8
Layer 1
10
327.060306
20
-970.058062
11
327.587917
21
-968.066765
0
LINE
8
Layer 1
10
327.587917
20
-968.066765
11
327.964817
21
-965.964417
0
LINE
8
Layer 1
10
327.964817
20
-965.964417
11
328.190977
21
-963.751001
0
LINE
8
Layer 1
10
328.190977
20
-963.751001
11
328.266370
21
-961.426500
0
LINE
8
Layer 1
10
328.266370
20
-961.426500
11
328.110713
21
-958.149038
0
LINE
8
Layer 1
10
328.110713
20
-958.149038
11
327.643741
21
-955.064684
0
LINE
8
Layer 1
10
327.643741
20
-955.064684
11
326.865454
21
-952.173414
0
LINE
8
Layer 1
10
326.865454
20
-952.173414
11
325.775854
21
-949.475200
0
LINE
8
Layer 1
10
325.775854
20
-949.475200
11
324.374939
21
-946.970018
0
LINE
8
Layer 1
10
324.374939
20
-946.970018
11
322.662710
21
-944.657841
0
LINE
8
Layer 1
10
322.662710
20
-944.657841
11
320.639167
21
-942.538643
0
LINE
8
Layer 1
10
320.639167
20
-942.538643
11
318.304310
21
-940.612400
0
LINE
8
Layer 1
10
318.304310
20
-940.612400
11
315.680377
21
-938.897679
0
LINE
8
Layer 1
10
315.680377
20
-938.897679
11
312.789601
21
-937.411508
0
LINE
8
Layer 1
10
312.789601
20
-937.411508
11
309.631976
21
-936.153911
0
LINE
8
Layer 1
10
309.631976
20
-936.153911
11
306.207496
21
-935.124912
0
LINE
8
Layer 1
10
306.207496
20
-935.124912
11
302.516156
21
-934.324538
0
LINE
8
Layer 1
10
302.516156
20
-934.324538
11
298.557949
21
-933.752811
0
LINE
8
Layer 1
10
298.557949
20
-933.752811
11
294.332869
21
-933.409757
0
LINE
8
Layer 1
10
294.332869
20
-933.409757
11
289.840910
21
-933.295400
0
LINE
8
Layer 1
10
289.840910
20
-933.295400
11
285.405820
21
-933.295400
0
LINE
8
Layer 1
10
285.405820
20
-933.295400
11
285.405820
21
-956.977600
0
LINE
8
Layer 1
10
285.405820
20
-956.977600
11
287.240580
21
-957.241341
0
LINE
8
Layer 1
10
287.240580
20
-957.241341
11
288.869344
21
-957.679175
0
LINE
8
Layer 1
10
288.869344
20
-957.679175
11
290.290206
21
-958.292472
0
LINE
8
Layer 1
10
290.290206
20
-958.292472
11
291.501260
21
-959.082600
0
LINE
8
Layer 1
10
291.501260
20
-959.082600
11
292.711176
21
-960.322117
0
LINE
8
Layer 1
10
292.711176
20
-960.322117
11
293.576019
21
-961.836312
0
LINE
8
Layer 1
10
293.576019
20
-961.836312
11
294.095289
21
-963.625252
0
LINE
8
Layer 1
10
294.095289
20
-963.625252
11
294.268490
21
-965.689000
0
LINE
8
Layer 1
10
294.268490
20
-965.689000
11
294.095289
21
-967.825155
0
LINE
8
Layer 1
10
294.095289
20
-967.825155
11
293.576019
21
-969.685412
0
LINE
8
Layer 1
10
293.576019
20
-969.685412
11
292.711176
21
-971.270139
0
LINE
8
Layer 1
10
292.711176
20
-971.270139
11
291.501260
21
-972.579700
0
LINE
8
Layer 1
10
291.501260
20
-972.579700
11
290.290206
21
-973.421055
0
LINE
8
Layer 1
10
290.290206
20
-973.421055
11
288.869344
21
-974.073887
0
LINE
8
Layer 1
10
288.869344
20
-974.073887
11
287.240580
21
-974.539802
0
LINE
8
Layer 1
10
287.240580
20
-974.539802
11
285.405820
21
-974.820400
0
LINE
8
Layer 1
10
285.405820
20
-974.820400
11
285.405820
21
-998.508300
0
LINE
8
Layer 1
10
285.405820
20
-998.508300
11
285.887800
21
-998.508300
0
LINE
8
Layer 1
10
285.887800
20
-998.508300
11
288.803051
21
-998.663923
0
LINE
8
Layer 1
10
288.803051
20
-998.663923
11
291.382345
21
-999.130487
0
LINE
8
Layer 1
10
291.382345
20
-999.130487
11
293.625902
21
-999.907533
0
LINE
8
Layer 1
10
293.625902
20
-999.907533
11
295.533940
21
-1000.994600
0
LINE
8
Layer 1
10
295.533940
20
-1000.994600
11
297.055181
21
-1002.349222
0
LINE
8
Layer 1
10
297.055181
20
-1002.349222
11
298.142330
21
-1003.925375
0
LINE
8
Layer 1
10
298.142330
20
-1003.925375
11
298.794944
21
-1005.723341
0
LINE
8
Layer 1
10
298.794944
20
-1005.723341
11
299.012580
21
-1007.743400
0
LINE
8
Layer 1
10
299.012580
20
-1007.743400
11
298.794944
21
-1010.030398
0
LINE
8
Layer 1
10
298.794944
20
-1010.030398
11
298.142330
21
-1012.059462
0
LINE
8
Layer 1
10
298.142330
20
-1012.059462
11
297.055181
21
-1013.830845
0
LINE
8
Layer 1
10
297.055181
20
-1013.830845
11
295.533940
21
-1015.344800
0
LINE
8
Layer 1
10
295.533940
20
-1015.344800
11
293.635747
21
-1016.556678
0
LINE
8
Layer 1
10
293.635747
20
-1016.556678
11
291.421762
21
-1017.422375
0
LINE
8
Layer 1
10
291.421762
20
-1017.422375
11
288.891822
21
-1017.941834
0
LINE
8
Layer 1
10
288.891822
20
-1017.941834
11
286.045760
21
-1018.115000
0
LINE
8
Layer 1
10
286.045760
20
-1018.115000
11
285.405820
21
-1018.115000
0
LINE
8
Layer 1
10
285.405820
20
-1018.115000
11
285.405820
21
-1041.699700
0
LINE
8
Layer 1
10
285.405820
20
-1041.699700
11
285.413820
21
-1041.699700
0
LINE
8
Layer 1
10
285.413820
20
-1041.699700
11
291.088600
21
-1041.573174
0
LINE
8
Layer 1
10
291.088600
20
-1041.573174
11
296.412712
21
-1041.193592
0
LINE
8
Layer 1
10
296.412712
20
-1041.193592
11
301.386150
21
-1040.560949
0
LINE
8
Layer 1
10
301.386150
20
-1040.560949
11
306.008907
21
-1039.675238
0
LINE
8
Layer 1
10
306.008907
20
-1039.675238
11
310.280979
21
-1038.536453
0
LINE
8
Layer 1
10
310.280979
20
-1038.536453
11
314.202359
21
-1037.144589
0
LINE
8
Layer 1
10
314.202359
20
-1037.144589
11
317.773041
21
-1035.499640
0
LINE
8
Layer 1
10
317.773041
20
-1035.499640
11
320.993020
21
-1033.601600
0
LINE
8
Layer 1
10
320.993020
20
-1033.601600
11
323.846567
21
-1031.461602
0
LINE
8
Layer 1
10
323.846567
20
-1031.461602
11
326.319712
21
-1029.090767
0
LINE
8
Layer 1
10
326.319712
20
-1029.090767
11
328.412434
21
-1026.489071
0
LINE
8
Layer 1
10
328.412434
20
-1026.489071
11
330.124710
21
-1023.656488
0
LINE
8
Layer 1
10
330.124710
20
-1023.656488
11
331.456519
21
-1020.592994
0
LINE
8
Layer 1
10
331.456519
20
-1020.592994
11
332.407838
21
-1017.298564
0
LINE
8
Layer 1
10
332.407838
20
-1017.298564
11
332.978646
21
-1013.773174
0
LINE
8
Layer 1
10
332.978646
20
-1013.773174
11
333.168920
21
-1010.016800
0
LINE
8
Layer 1
10
333.168920
20
-1010.016800
11
333.066318
21
-1007.682921
0
LINE
8
Layer 1
10
333.066318
20
-1007.682921
11
332.758549
21
-1005.439842
0
LINE
8
Layer 1
10
332.758549
20
-1005.439842
11
332.245668
21
-1003.287614
0
LINE
8
Layer 1
10
332.245668
20
-1003.287614
11
331.527730
21
-1001.226288
0
LINE
8
Layer 1
10
331.527730
20
-1001.226288
11
330.604791
21
-999.255912
0
LINE
8
Layer 1
10
330.604791
20
-999.255912
11
329.476906
21
-997.376539
0
LINE
8
Layer 1
10
329.476906
20
-997.376539
11
328.144131
21
-995.588218
0
LINE
8
Layer 1
10
328.144131
20
-995.588218
11
326.606520
21
-993.891000
0
LINE
8
Layer 1
10
326.606520
20
-993.891000
11
326.606000
21
-993.891000
0
LINE
8
Layer 1
10
558.946000
20
-933.295000
11
526.206000
21
-933.295000
0
LINE
8
Layer 1
10
526.206000
20
-933.295000
11
526.206000
21
-1041.700000
0
LINE
8
Layer 1
10
526.206000
20
-1041.700000
11
558.946000
21
-1041.700000
0
LINE
8
Layer 1
10
558.946000
20
-1041.700000
11
558.946000
21
-933.295000
0
LINE
8
Layer 1
10
613.651000
20
-947.574000
11
609.621179
21
-944.379610
0
LINE
8
Layer 1
10
609.621179
20
-944.379610
11
605.205805
21
-941.589939
0
LINE
8
Layer 1
10
605.205805
20
-941.589939
11
600.405125
21
-939.204765
0
LINE
8
Layer 1
10
600.405125
20
-939.204765
11
595.219388
21
-937.223862
0
LINE
8
Layer 1
10
595.219388
20
-937.223862
11
589.648839
21
-935.647009
0
LINE
8
Layer 1
10
589.648839
20
-935.647009
11
583.693727
21
-934.473980
0
LINE
8
Layer 1
10
583.693727
20
-934.473980
11
577.354298
21
-933.704551
0
LINE
8
Layer 1
10
577.354298
20
-933.704551
11
570.630800
21
-933.338500
0
LINE
8
Layer 1
10
570.630800
20
-933.338500
11
570.630800
21
-958.222600
0
LINE
8
Layer 1
10
570.630800
20
-958.222600
11
573.330257
21
-958.553751
0
LINE
8
Layer 1
10
573.330257
20
-958.553751
11
575.878141
21
-959.050883
0
LINE
8
Layer 1
10
575.878141
20
-959.050883
11
578.273973
21
-959.714489
0
LINE
8
Layer 1
10
578.273973
20
-959.714489
11
580.517270
21
-960.545062
0
LINE
8
Layer 1
10
580.517270
20
-960.545062
11
582.607552
21
-961.543097
0
LINE
8
Layer 1
10
582.607552
20
-961.543097
11
584.544339
21
-962.709086
0
LINE
8
Layer 1
10
584.544339
20
-962.709086
11
586.327148
21
-964.043522
0
LINE
8
Layer 1
10
586.327148
20
-964.043522
11
587.955500
21
-965.546900
0
LINE
8
Layer 1
10
587.955500
20
-965.546900
11
589.678695
21
-967.536391
0
LINE
8
Layer 1
10
589.678695
20
-967.536391
11
591.172175
21
-969.738828
0
LINE
8
Layer 1
10
591.172175
20
-969.738828
11
592.435927
21
-972.154232
0
LINE
8
Layer 1
10
592.435927
20
-972.154232
11
593.469937
21
-974.782625
0
LINE
8
Layer 1
10
593.469937
20
-974.782625
11
594.274192
21
-977.624027
0
LINE
8
Layer 1
10
594.274192
20
-977.624027
11
594.848676
21
-980.678459
0
LINE
8
Layer 1
10
594.848676
20
-980.678459
11
595.193377
21
-983.945943
0
LINE
8
Layer 1
10
595.193377
20
-983.945943
11
595.308280
21
-987.426500
0
LINE
8
Layer 1
10
595.308280
20
-987.426500
11
595.199539
21
-990.876475
0
LINE
8
Layer 1
10
595.199539
20
-990.876475
11
594.873329
21
-994.122116
0
LINE
8
Layer 1
10
594.873329
20
-994.122116
11
594.329671
21
-997.163442
0
LINE
8
Layer 1
10
594.329671
20
-997.163442
11
593.568586
21
-1000.000475
0
LINE
8
Layer 1
10
593.568586
20
-1000.000475
11
592.590096
21
-1002.633236
0
LINE
8
Layer 1
10
592.590096
20
-1002.633236
11
591.394221
21
-1005.061747
0
LINE
8
Layer 1
10
591.394221
20
-1005.061747
11
589.980982
21
-1007.286028
0
LINE
8
Layer 1
10
589.980982
20
-1007.286028
11
588.350400
21
-1009.306100
0
LINE
8
Layer 1
10
588.350400
20
-1009.306100
11
586.691808
21
-1010.946685
0
LINE
8
Layer 1
10
586.691808
20
-1010.946685
11
584.873436
21
-1012.388277
0
LINE
8
Layer 1
10
584.873436
20
-1012.388277
11
582.895696
21
-1013.631421
0
LINE
8
Layer 1
10
582.895696
20
-1013.631421
11
580.758996
21
-1014.676662
0
LINE
8
Layer 1
10
580.758996
20
-1014.676662
11
578.463747
21
-1015.524546
0
LINE
8
Layer 1
10
578.463747
20
-1015.524546
11
576.010358
21
-1016.175617
0
LINE
8
Layer 1
10
576.010358
20
-1016.175617
11
573.399239
21
-1016.630420
0
LINE
8
Layer 1
10
573.399239
20
-1016.630420
11
570.630800
21
-1016.889500
0
LINE
8
Layer 1
10
570.630800
20
-1016.889500
11
570.630800
21
-1041.662000
0
LINE
8
Layer 1
10
570.630800
20
-1041.662000
11
577.259083
21
-1041.309078
0
LINE
8
Layer 1
10
577.259083
20
-1041.309078
11
583.524830
21
-1040.538908
0
LINE
8
Layer 1
10
583.524830
20
-1040.538908
11
589.427808
21
-1039.351150
0
LINE
8
Layer 1
10
589.427808
20
-1039.351150
11
594.967787
21
-1037.745462
0
LINE
8
Layer 1
10
594.967787
20
-1037.745462
11
600.144537
21
-1035.721505
0
LINE
8
Layer 1
10
600.144537
20
-1035.721505
11
604.957827
21
-1033.278936
0
LINE
8
Layer 1
10
604.957827
20
-1033.278936
11
609.407424
21
-1030.417415
0
LINE
8
Layer 1
10
609.407424
20
-1030.417415
11
613.493100
21
-1027.136600
0
LINE
8
Layer 1
10
613.493100
20
-1027.136600
11
617.310043
21
-1023.333094
0
LINE
8
Layer 1
10
617.310043
20
-1023.333094
11
619.027736
21
-1021.308942
0
LINE
8
Layer 1
10
619.027736
20
-1021.308942
11
620.618234
21
-1019.203189
0
LINE
8
Layer 1
10
620.618234
20
-1019.203189
11
622.081532
21
-1017.015832
0
LINE
8
Layer 1
10
622.081532
20
-1017.015832
11
623.417621
21
-1014.746868
0
LINE
8
Layer 1
10
623.417621
20
-1014.746868
11
625.708150
21
-1009.964112
0
LINE
8
Layer 1
10
625.708150
20
-1009.964112
11
627.489766
21
-1004.854906
0
LINE
8
Layer 1
10
627.489766
20
-1004.854906
11
628.762416
21
-999.419230
0
LINE
8
Layer 1
10
628.762416
20
-999.419230
11
629.526045
21
-993.657067
0
LINE
8
Layer 1
10
629.526045
20
-993.657067
11
629.780600
21
-987.568400
0
LINE
8
Layer 1
10
629.780600
20
-987.568400
11
629.528576
21
-981.318685
0
LINE
8
Layer 1
10
629.528576
20
-981.318685
11
628.772503
21
-975.426089
0
LINE
8
Layer 1
10
628.772503
20
-975.426089
11
627.512384
21
-969.890683
0
LINE
8
Layer 1
10
627.512384
20
-969.890683
11
625.748217
21
-964.712537
0
LINE
8
Layer 1
10
625.748217
20
-964.712537
11
624.677117
21
-962.257460
0
LINE
8
Layer 1
10
624.677117
20
-962.257460
11
623.480005
21
-959.891725
0
LINE
8
Layer 1
10
623.480005
20
-959.891725
11
622.156882
21
-957.615341
0
LINE
8
Layer 1
10
622.156882
20
-957.615341
11
620.707748
21
-955.428317
0
LINE
8
Layer 1
10
620.707748
20
-955.428317
11
619.132602
21
-953.330662
0
LINE
8
Layer 1
10
619.132602
20
-953.330662
11
617.431446
21
-951.322385
0
LINE
8
Layer 1
10
617.431446
20
-951.322385
11
615.604278
21
-949.403495
0
LINE
8
Layer 1
10
615.604278
20
-949.403495
11
613.651100
21
-947.574000
0
LINE
8
Layer 1
10
613.651100
20
-947.574000
11
613.651000
21
-947.574000
0
LINE
8
Layer 1
10
701.328000
20
-1310.120000
11
698.132647
21
-1309.038784
0
LINE
8
Layer 1
10
698.132647
20
-1309.038784
11
695.254407
21
-1307.475600
0
LINE
8
Layer 1
10
695.254407
20
-1307.475600
11
692.693864
21
-1305.429566
0
LINE
8
Layer 1
10
692.693864
20
-1305.429566
11
690.451600
21
-1302.899800
0
LINE
8
Layer 1
10
690.451600
20
-1302.899800
11
689.049170
21
-1300.802106
0
LINE
8
Layer 1
10
689.049170
20
-1300.802106
11
687.833816
21
-1298.486745
0
LINE
8
Layer 1
10
687.833816
20
-1298.486745
11
686.805511
21
-1295.953746
0
LINE
8
Layer 1
10
686.805511
20
-1295.953746
11
685.964229
21
-1293.203137
0
LINE
8
Layer 1
10
685.964229
20
-1293.203137
11
685.309944
21
-1290.234949
0
LINE
8
Layer 1
10
685.309944
20
-1290.234949
11
684.842630
21
-1287.049211
0
LINE
8
Layer 1
10
684.842630
20
-1287.049211
11
684.562261
21
-1283.645951
0
LINE
8
Layer 1
10
684.562261
20
-1283.645951
11
684.468810
21
-1280.025200
0
LINE
8
Layer 1
10
684.468810
20
-1280.025200
11
684.562261
21
-1276.403450
0
LINE
8
Layer 1
10
684.562261
20
-1276.403450
11
684.842630
21
-1272.997080
0
LINE
8
Layer 1
10
684.842630
20
-1272.997080
11
685.309944
21
-1269.806060
0
LINE
8
Layer 1
10
685.309944
20
-1269.806060
11
685.964229
21
-1266.830362
0
LINE
8
Layer 1
10
685.964229
20
-1266.830362
11
686.805511
21
-1264.069957
0
LINE
8
Layer 1
10
686.805511
20
-1264.069957
11
687.833816
21
-1261.524814
0
LINE
8
Layer 1
10
687.833816
20
-1261.524814
11
689.049170
21
-1259.194905
0
LINE
8
Layer 1
10
689.049170
20
-1259.194905
11
690.451600
21
-1257.080200
0
LINE
8
Layer 1
10
690.451600
20
-1257.080200
11
692.693875
21
-1254.528844
0
LINE
8
Layer 1
10
692.693875
20
-1254.528844
11
695.254422
21
-1252.464725
0
LINE
8
Layer 1
10
695.254422
20
-1252.464725
11
698.132658
21
-1250.887244
0
LINE
8
Layer 1
10
698.132658
20
-1250.887244
11
701.328000
21
-1249.795800
0
LINE
8
Layer 1
10
701.328000
20
-1249.795800
11
701.328000
21
-1224.569000
0
LINE
8
Layer 1
10
701.328000
20
-1224.569000
11
696.101115
21
-1225.162329
0
LINE
8
Layer 1
10
696.101115
20
-1225.162329
11
691.135192
21
-1226.115573
0
LINE
8
Layer 1
10
691.135192
20
-1226.115573
11
686.430238
21
-1227.428703
0
LINE
8
Layer 1
10
686.430238
20
-1227.428703
11
681.986263
21
-1229.101688
0
LINE
8
Layer 1
10
681.986263
20
-1229.101688
11
677.803272
21
-1231.134499
0
LINE
8
Layer 1
10
677.803272
20
-1231.134499
11
673.881277
21
-1233.527108
0
LINE
8
Layer 1
10
673.881277
20
-1233.527108
11
670.220283
21
-1236.279485
0
LINE
8
Layer 1
10
670.220283
20
-1236.279485
11
666.820300
21
-1239.391600
0
LINE
8
Layer 1
10
666.820300
20
-1239.391600
11
663.314910
21
-1243.321058
0
LINE
8
Layer 1
10
663.314910
20
-1243.321058
11
660.276946
21
-1247.578991
0
LINE
8
Layer 1
10
660.276946
20
-1247.578991
11
657.706395
21
-1252.165409
0
LINE
8
Layer 1
10
657.706395
20
-1252.165409
11
655.603244
21
-1257.080325
0
LINE
8
Layer 1
10
655.603244
20
-1257.080325
11
653.967481
21
-1262.323750
0
LINE
8
Layer 1
10
653.967481
20
-1262.323750
11
652.799095
21
-1267.895697
0
LINE
8
Layer 1
10
652.799095
20
-1267.895697
11
652.098072
21
-1273.796176
0
LINE
8
Layer 1
10
652.098072
20
-1273.796176
11
651.864400
21
-1280.025200
0
LINE
8
Layer 1
10
651.864400
20
-1280.025200
11
652.096827
21
-1286.253347
0
LINE
8
Layer 1
10
652.096827
20
-1286.253347
11
652.794160
21
-1292.150727
0
LINE
8
Layer 1
10
652.794160
20
-1292.150727
11
653.956478
21
-1297.717321
0
LINE
8
Layer 1
10
653.956478
20
-1297.717321
11
655.583860
21
-1302.953113
0
LINE
8
Layer 1
10
655.583860
20
-1302.953113
11
657.676384
21
-1307.858084
0
LINE
8
Layer 1
10
657.676384
20
-1307.858084
11
660.234130
21
-1312.432217
0
LINE
8
Layer 1
10
660.234130
20
-1312.432217
11
663.257176
21
-1316.675495
0
LINE
8
Layer 1
10
663.257176
20
-1316.675495
11
666.745600
21
-1320.587900
0
LINE
8
Layer 1
10
666.745600
20
-1320.587900
11
670.134891
21
-1323.688520
0
LINE
8
Layer 1
10
670.134891
20
-1323.688520
11
673.790943
21
-1326.430156
0
LINE
8
Layer 1
10
673.790943
20
-1326.430156
11
677.713734
21
-1328.812852
0
LINE
8
Layer 1
10
677.713734
20
-1328.812852
11
681.903241
21
-1330.836650
0
LINE
8
Layer 1
10
681.903241
20
-1330.836650
11
686.359443
21
-1332.501591
0
LINE
8
Layer 1
10
686.359443
20
-1332.501591
11
691.082319
21
-1333.807719
0
LINE
8
Layer 1
10
691.082319
20
-1333.807719
11
696.071845
21
-1334.755074
0
LINE
8
Layer 1
10
696.071845
20
-1334.755074
11
701.328000
21
-1335.343700
0
LINE
8
Layer 1
10
701.328000
20
-1335.343700
11
701.328000
21
-1310.120000
0
LINE
8
Layer 1
10
701.328000
20
-1310.120000
11
701.328000
21
-1310.120000
0
LINE
8
Layer 1
10
748.706000
20
-1239.460000
11
745.310245
21
-1236.351330
0
LINE
8
Layer 1
10
745.310245
20
-1236.351330
11
741.654808
21
-1233.600119
0
LINE
8
Layer 1
10
741.654808
20
-1233.600119
11
737.739764
21
-1231.206255
0
LINE
8
Layer 1
10
737.739764
20
-1231.206255
11
733.565185
21
-1229.169625
0
LINE
8
Layer 1
10
733.565185
20
-1229.169625
11
729.131146
21
-1227.490117
0
LINE
8
Layer 1
10
729.131146
20
-1227.490117
11
724.437719
21
-1226.167619
0
LINE
8
Layer 1
10
724.437719
20
-1226.167619
11
719.484980
21
-1225.202017
0
LINE
8
Layer 1
10
719.484980
20
-1225.202017
11
714.273000
21
-1224.593200
0
LINE
8
Layer 1
10
714.273000
20
-1224.593200
11
714.273000
21
-1249.872600
0
LINE
8
Layer 1
10
714.273000
20
-1249.872600
11
717.397524
21
-1250.986017
0
LINE
8
Layer 1
10
717.397524
20
-1250.986017
11
720.226949
21
-1252.569487
0
LINE
8
Layer 1
10
720.226949
20
-1252.569487
11
722.761149
21
-1254.623489
0
LINE
8
Layer 1
10
722.761149
20
-1254.623489
11
725.000000
21
-1257.148500
0
LINE
8
Layer 1
10
725.000000
20
-1257.148500
11
726.437021
21
-1259.277475
0
LINE
8
Layer 1
10
726.437021
20
-1259.277475
11
727.682524
21
-1261.615139
0
LINE
8
Layer 1
10
727.682524
20
-1261.615139
11
728.736483
21
-1264.161474
0
LINE
8
Layer 1
10
728.736483
20
-1264.161474
11
729.598871
21
-1266.916462
0
LINE
8
Layer 1
10
729.598871
20
-1266.916462
11
730.269663
21
-1269.880087
0
LINE
8
Layer 1
10
730.269663
20
-1269.880087
11
730.748833
21
-1273.052330
0
LINE
8
Layer 1
10
730.748833
20
-1273.052330
11
731.036354
21
-1276.433173
0
LINE
8
Layer 1
10
731.036354
20
-1276.433173
11
731.132200
21
-1280.022600
0
LINE
8
Layer 1
10
731.132200
20
-1280.022600
11
731.037551
21
-1283.611634
0
LINE
8
Layer 1
10
731.037551
20
-1283.611634
11
730.753606
21
-1286.989653
0
LINE
8
Layer 1
10
730.753606
20
-1286.989653
11
730.280364
21
-1290.156646
0
LINE
8
Layer 1
10
730.280364
20
-1290.156646
11
729.617825
21
-1293.112600
0
LINE
8
Layer 1
10
729.617825
20
-1293.112600
11
728.765990
21
-1295.857504
0
LINE
8
Layer 1
10
728.765990
20
-1295.857504
11
727.724859
21
-1298.391347
0
LINE
8
Layer 1
10
727.724859
20
-1298.391347
11
726.494432
21
-1300.714116
0
LINE
8
Layer 1
10
726.494432
20
-1300.714116
11
725.074710
21
-1302.825800
0
LINE
8
Layer 1
10
725.074710
20
-1302.825800
11
722.842245
21
-1305.341733
0
LINE
8
Layer 1
10
722.842245
20
-1305.341733
11
720.297688
21
-1307.385738
0
LINE
8
Layer 1
10
720.297688
20
-1307.385738
11
717.441217
21
-1308.958048
0
LINE
8
Layer 1
10
717.441217
20
-1308.958048
11
714.273010
21
-1310.058900
0
LINE
8
Layer 1
10
714.273010
20
-1310.058900
11
714.273010
21
-1335.311500
0
LINE
8
Layer 1
10
714.273010
20
-1335.311500
11
719.484958
21
-1334.705637
0
LINE
8
Layer 1
10
719.484958
20
-1334.705637
11
724.437679
21
-1333.744680
0
LINE
8
Layer 1
10
724.437679
20
-1333.744680
11
729.131096
21
-1332.428492
0
LINE
8
Layer 1
10
729.131096
20
-1332.428492
11
733.565135
21
-1330.756938
0
LINE
8
Layer 1
10
733.565135
20
-1330.756938
11
737.739721
21
-1328.729878
0
LINE
8
Layer 1
10
737.739721
20
-1328.729878
11
741.654779
21
-1326.347177
0
LINE
8
Layer 1
10
741.654779
20
-1326.347177
11
745.310233
21
-1323.608696
0
LINE
8
Layer 1
10
745.310233
20
-1323.608696
11
748.706010
21
-1320.514300
0
LINE
8
Layer 1
10
748.706010
20
-1320.514300
11
752.229008
21
-1316.587773
0
LINE
8
Layer 1
10
752.229008
20
-1316.587773
11
755.282193
21
-1312.336988
0
LINE
8
Layer 1
10
755.282193
20
-1312.336988
11
757.865589
21
-1307.761940
0
LINE
8
Layer 1
10
757.865589
20
-1307.761940
11
759.979223
21
-1302.862625
0
LINE
8
Layer 1
10
759.979223
20
-1302.862625
11
761.623116
21
-1297.639038
0
LINE
8
Layer 1
10
761.623116
20
-1297.639038
11
762.797296
21
-1292.091175
0
LINE
8
Layer 1
10
762.797296
20
-1292.091175
11
763.501786
21
-1286.219030
0
LINE
8
Layer 1
10
763.501786
20
-1286.219030
11
763.736610
21
-1280.022600
0
LINE
8
Layer 1
10
763.736610
20
-1280.022600
11
763.501788
21
-1273.825896
0
LINE
8
Layer 1
10
763.501788
20
-1273.825896
11
762.797304
21
-1267.950934
0
LINE
8
Layer 1
10
762.797304
20
-1267.950934
11
761.623132
21
-1262.397756
0
LINE
8
Layer 1
10
761.623132
20
-1262.397756
11
759.979245
21
-1257.166400
0
LINE
8
Layer 1
10
759.979245
20
-1257.166400
11
757.865616
21
-1252.256907
0
LINE
8
Layer 1
10
757.865616
20
-1252.256907
11
755.282218
21
-1247.669316
0
LINE
8
Layer 1
10
755.282218
20
-1247.669316
11
752.229025
21
-1243.403667
0
LINE
8
Layer 1
10
752.229025
20
-1243.403667
11
748.706010
21
-1239.460000
0
LINE
8
Layer 1
10
748.706010
20
-1239.460000
11
748.706000
21
-1239.460000
0
LINE
8
Layer 1
10
135.083000
20
-1376.390000
11
104.943000
21
-1376.390000
0
LINE
8
Layer 1
10
104.943000
20
-1376.390000
11
104.943000
21
-1484.790000
0
LINE
8
Layer 1
10
104.943000
20
-1484.790000
11
135.083000
21
-1484.790000
0
LINE
8
Layer 1
10
135.083000
20
-1484.790000
11
135.083000
21
-1376.390000
0
LINE
8
Layer 1
10
180.895000
20
-1385.910000
11
177.708656
21
-1383.699535
0
LINE
8
Layer 1
10
177.708656
20
-1383.699535
11
174.193901
21
-1381.781014
0
LINE
8
Layer 1
10
174.193901
20
-1381.781014
11
170.350903
21
-1380.154358
0
LINE
8
Layer 1
10
170.350903
20
-1380.154358
11
166.179829
21
-1378.819487
0
LINE
8
Layer 1
10
166.179829
20
-1378.819487
11
161.680844
21
-1377.776325
0
LINE
8
Layer 1
10
161.680844
20
-1377.776325
11
156.854117
21
-1377.024792
0
LINE
8
Layer 1
10
156.854117
20
-1377.024792
11
151.699813
21
-1376.564810
0
LINE
8
Layer 1
10
151.699813
20
-1376.564810
11
146.218100
21
-1376.396300
0
LINE
8
Layer 1
10
146.218100
20
-1376.396300
11
146.218100
21
-1400.557900
0
LINE
8
Layer 1
10
146.218100
20
-1400.557900
11
149.403216
21
-1400.813650
0
LINE
8
Layer 1
10
149.403216
20
-1400.813650
11
152.201896
21
-1401.475525
0
LINE
8
Layer 1
10
152.201896
20
-1401.475525
11
154.612303
21
-1402.545212
0
LINE
8
Layer 1
10
154.612303
20
-1402.545212
11
156.632600
21
-1404.024400
0
LINE
8
Layer 1
10
156.632600
20
-1404.024400
11
157.515041
21
-1404.947404
0
LINE
8
Layer 1
10
157.515041
20
-1404.947404
11
158.280037
21
-1405.974442
0
LINE
8
Layer 1
10
158.280037
20
-1405.974442
11
158.927522
21
-1407.105587
0
LINE
8
Layer 1
10
158.927522
20
-1407.105587
11
159.457431
21
-1408.340912
0
LINE
8
Layer 1
10
159.457431
20
-1408.340912
11
160.164255
21
-1411.124402
0
LINE
8
Layer 1
10
160.164255
20
-1411.124402
11
160.399980
21
-1414.325500
0
LINE
8
Layer 1
10
160.399980
20
-1414.325500
11
160.136021
21
-1417.669133
0
LINE
8
Layer 1
10
160.136021
20
-1417.669133
11
159.806162
21
-1419.184373
0
LINE
8
Layer 1
10
159.806162
20
-1419.184373
11
159.344461
21
-1420.595212
0
LINE
8
Layer 1
10
159.344461
20
-1420.595212
11
158.750979
21
-1421.901638
0
LINE
8
Layer 1
10
158.750979
20
-1421.901638
11
158.025773
21
-1423.103636
0
LINE
8
Layer 1
10
158.025773
20
-1423.103636
11
157.168904
21
-1424.201194
0
LINE
8
Layer 1
10
157.168904
20
-1424.201194
11
156.180430
21
-1425.194300
0
LINE
8
Layer 1
10
156.180430
20
-1425.194300
11
154.193550
21
-1426.640744
0
LINE
8
Layer 1
10
154.193550
20
-1426.640744
11
151.870086
21
-1427.736525
0
LINE
8
Layer 1
10
151.870086
20
-1427.736525
11
149.211217
21
-1428.482844
0
LINE
8
Layer 1
10
149.211217
20
-1428.482844
11
146.218120
21
-1428.880900
0
LINE
8
Layer 1
10
146.218120
20
-1428.880900
11
146.218120
21
-1453.082800
0
LINE
8
Layer 1
10
146.218120
20
-1453.082800
11
151.495030
21
-1452.825902
0
LINE
8
Layer 1
10
151.495030
20
-1452.825902
11
156.478958
21
-1452.278450
0
LINE
8
Layer 1
10
156.478958
20
-1452.278450
11
161.169672
21
-1451.440279
0
LINE
8
Layer 1
10
161.169672
20
-1451.440279
11
165.566945
21
-1450.311225
0
LINE
8
Layer 1
10
165.566945
20
-1450.311225
11
169.670546
21
-1448.891124
0
LINE
8
Layer 1
10
169.670546
20
-1448.891124
11
173.480245
21
-1447.179813
0
LINE
8
Layer 1
10
173.480245
20
-1447.179813
11
176.995813
21
-1445.177126
0
LINE
8
Layer 1
10
176.995813
20
-1445.177126
11
180.217020
21
-1442.882900
0
LINE
8
Layer 1
10
180.217020
20
-1442.882900
11
183.236836
21
-1440.190119
0
LINE
8
Layer 1
10
183.236836
20
-1440.190119
11
185.854051
21
-1437.226536
0
LINE
8
Layer 1
10
185.854051
20
-1437.226536
11
188.068654
21
-1433.992125
0
LINE
8
Layer 1
10
188.068654
20
-1433.992125
11
189.880631
21
-1430.486862
0
LINE
8
Layer 1
10
189.880631
20
-1430.486862
11
191.289969
21
-1426.710723
0
LINE
8
Layer 1
10
191.289969
20
-1426.710723
11
192.296655
21
-1422.663683
0
LINE
8
Layer 1
10
192.296655
20
-1422.663683
11
192.900677
21
-1418.345717
0
LINE
8
Layer 1
10
192.900677
20
-1418.345717
11
193.102020
21
-1413.756800
0
LINE
8
Layer 1
10
193.102020
20
-1413.756800
11
192.911285
21
-1409.312600
0
LINE
8
Layer 1
10
192.911285
20
-1409.312600
11
192.339081
21
-1405.143647
0
LINE
8
Layer 1
10
192.339081
20
-1405.143647
11
191.385408
21
-1401.249939
0
LINE
8
Layer 1
10
191.385408
20
-1401.249939
11
190.050266
21
-1397.631475
0
LINE
8
Layer 1
10
190.050266
20
-1397.631475
11
188.333656
21
-1394.288251
0
LINE
8
Layer 1
10
188.333656
20
-1394.288251
11
186.235578
21
-1391.220266
0
LINE
8
Layer 1
10
186.235578
20
-1391.220266
11
183.756033
21
-1388.427516
0
LINE
8
Layer 1
10
183.756033
20
-1388.427516
11
180.895020
21
-1385.910000
0
LINE
8
Layer 1
10
180.895020
20
-1385.910000
11
180.895000
21
-1385.910000
0
LINE
8
Layer 1
10
284.248000
20
-1452.300000
11
282.438492
21
-1451.853534
0
LINE
8
Layer 1
10
282.438492
20
-1451.853534
11
280.720387
21
-1451.269180
0
LINE
8
Layer 1
10
280.720387
20
-1451.269180
11
279.093752
21
-1450.546851
0
LINE
8
Layer 1
10
279.093752
20
-1450.546851
11
277.558651
21
-1449.686463
0
LINE
8
Layer 1
10
277.558651
20
-1449.686463
11
276.115150
21
-1448.687929
0
LINE
8
Layer 1
10
276.115150
20
-1448.687929
11
274.763315
21
-1447.551164
0
LINE
8
Layer 1
10
274.763315
20
-1447.551164
11
273.503210
21
-1446.276083
0
LINE
8
Layer 1
10
273.503210
20
-1446.276083
11
272.334900
21
-1444.862600
0
LINE
8
Layer 1
10
272.334900
20
-1444.862600
11
270.921815
21
-1442.765071
0
LINE
8
Layer 1
10
270.921815
20
-1442.765071
11
269.697227
21
-1440.449834
0
LINE
8
Layer 1
10
269.697227
20
-1440.449834
11
268.661110
21
-1437.916924
0
LINE
8
Layer 1
10
268.661110
20
-1437.916924
11
267.813437
21
-1435.166375
0
LINE
8
Layer 1
10
267.813437
20
-1435.166375
11
267.154183
21
-1432.198223
0
LINE
8
Layer 1
10
267.154183
20
-1432.198223
11
266.683319
21
-1429.012503
0
LINE
8
Layer 1
10
266.683319
20
-1429.012503
11
266.400820
21
-1425.609250
0
LINE
8
Layer 1
10
266.400820
20
-1425.609250
11
266.306660
21
-1421.988500
0
LINE
8
Layer 1
10
266.306660
20
-1421.988500
11
266.400820
21
-1418.366729
0
LINE
8
Layer 1
10
266.400820
20
-1418.366729
11
266.683319
21
-1414.960309
0
LINE
8
Layer 1
10
266.683319
20
-1414.960309
11
267.154183
21
-1411.769229
0
LINE
8
Layer 1
10
267.154183
20
-1411.769229
11
267.813438
21
-1408.793475
0
LINE
8
Layer 1
10
267.813438
20
-1408.793475
11
268.661110
21
-1406.033037
0
LINE
8
Layer 1
10
268.661110
20
-1406.033037
11
269.697227
21
-1403.487903
0
LINE
8
Layer 1
10
269.697227
20
-1403.487903
11
270.921815
21
-1401.158061
0
LINE
8
Layer 1
10
270.921815
20
-1401.158061
11
272.334900
21
-1399.043500
0
LINE
8
Layer 1
10
272.334900
20
-1399.043500
11
273.503216
21
-1397.618293
0
LINE
8
Layer 1
10
273.503216
20
-1397.618293
11
274.763326
21
-1396.332377
0
LINE
8
Layer 1
10
274.763326
20
-1396.332377
11
276.115165
21
-1395.185719
0
LINE
8
Layer 1
10
276.115165
20
-1395.185719
11
277.558666
21
-1394.178287
0
LINE
8
Layer 1
10
277.558666
20
-1394.178287
11
279.093766
21
-1393.310052
0
LINE
8
Layer 1
10
279.093766
20
-1393.310052
11
280.720398
21
-1392.580980
0
LINE
8
Layer 1
10
280.720398
20
-1392.580980
11
282.438498
21
-1391.991040
0
LINE
8
Layer 1
10
282.438498
20
-1391.991040
11
284.248000
21
-1391.540200
0
LINE
8
Layer 1
10
284.248000
20
-1391.540200
11
284.248000
21
-1366.478000
0
LINE
8
Layer 1
10
284.248000
20
-1366.478000
11
278.822181
21
-1367.023583
0
LINE
8
Layer 1
10
278.822181
20
-1367.023583
11
273.670297
21
-1367.944098
0
LINE
8
Layer 1
10
273.670297
20
-1367.944098
11
268.792571
21
-1369.239799
0
LINE
8
Layer 1
10
268.792571
20
-1369.239799
11
264.189225
21
-1370.910937
0
LINE
8
Layer 1
10
264.189225
20
-1370.910937
11
259.860482
21
-1372.957765
0
LINE
8
Layer 1
10
259.860482
20
-1372.957765
11
255.806566
21
-1375.380533
0
LINE
8
Layer 1
10
255.806566
20
-1375.380533
11
252.027697
21
-1378.179494
0
LINE
8
Layer 1
10
252.027697
20
-1378.179494
11
248.524100
21
-1381.354900
0
LINE
8
Layer 1
10
248.524100
20
-1381.354900
11
244.991908
21
-1385.284358
0
LINE
8
Layer 1
10
244.991908
20
-1385.284358
11
241.930786
21
-1389.542291
0
LINE
8
Layer 1
10
241.930786
20
-1389.542291
11
239.340699
21
-1394.128709
0
LINE
8
Layer 1
10
239.340699
20
-1394.128709
11
237.221612
21
-1399.043625
0
LINE
8
Layer 1
10
237.221612
20
-1399.043625
11
235.573494
21
-1404.287050
0
LINE
8
Layer 1
10
235.573494
20
-1404.287050
11
234.396308
21
-1409.858997
0
LINE
8
Layer 1
10
234.396308
20
-1409.858997
11
233.690021
21
-1415.759476
0
LINE
8
Layer 1
10
233.690021
20
-1415.759476
11
233.454600
21
-1421.988500
0
LINE
8
Layer 1
10
233.454600
20
-1421.988500
11
233.688816
21
-1428.216504
0
LINE
8
Layer 1
10
233.688816
20
-1428.216504
11
234.391502
21
-1434.113816
0
LINE
8
Layer 1
10
234.391502
20
-1434.113816
11
235.562717
21
-1439.680401
0
LINE
8
Layer 1
10
235.562717
20
-1439.680401
11
237.202521
21
-1444.916225
0
LINE
8
Layer 1
10
237.202521
20
-1444.916225
11
239.310973
21
-1449.821252
0
LINE
8
Layer 1
10
239.310973
20
-1449.821252
11
241.888130
21
-1454.395447
0
LINE
8
Layer 1
10
241.888130
20
-1454.395447
11
244.934053
21
-1458.638775
0
LINE
8
Layer 1
10
244.934053
20
-1458.638775
11
248.448800
21
-1462.551200
0
LINE
8
Layer 1
10
248.448800
20
-1462.551200
11
251.941007
21
-1465.714262
0
LINE
8
Layer 1
10
251.941007
20
-1465.714262
11
255.714469
21
-1468.501816
0
LINE
8
Layer 1
10
255.714469
20
-1468.501816
11
259.768943
21
-1470.914186
0
LINE
8
Layer 1
10
259.768943
20
-1470.914186
11
264.104186
21
-1472.951700
0
LINE
8
Layer 1
10
264.104186
20
-1472.951700
11
268.719956
21
-1474.614682
0
LINE
8
Layer 1
10
268.719956
20
-1474.614682
11
273.616010
21
-1475.903459
0
LINE
8
Layer 1
10
273.616010
20
-1475.903459
11
278.792106
21
-1476.818357
0
LINE
8
Layer 1
10
278.792106
20
-1476.818357
11
284.248000
21
-1477.359700
0
LINE
8
Layer 1
10
284.248000
20
-1477.359700
11
284.248000
21
-1452.300000
0
LINE
8
Layer 1
10
284.248000
20
-1452.300000
11
284.248000
21
-1452.300000
0
LINE
8
Layer 1
10
335.779000
20
-1457.090000
11
338.124166
21
-1453.551356
0
LINE
8
Layer 1
10
338.124166
20
-1453.551356
11
340.186863
21
-1449.755425
0
LINE
8
Layer 1
10
340.186863
20
-1449.755425
11
341.967091
21
-1445.701906
0
LINE
8
Layer 1
10
341.967091
20
-1445.701906
11
343.464850
21
-1441.390500
0
LINE
8
Layer 1
10
343.464850
20
-1441.390500
11
344.651486
21
-1436.849231
0
LINE
8
Layer 1
10
344.651486
20
-1436.849231
11
345.499147
21
-1432.103100
0
LINE
8
Layer 1
10
345.499147
20
-1432.103100
11
346.007783
21
-1427.152219
0
LINE
8
Layer 1
10
346.007783
20
-1427.152219
11
346.177340
21
-1421.996700
0
LINE
8
Layer 1
10
346.177340
20
-1421.996700
11
345.940687
21
-1415.799996
0
LINE
8
Layer 1
10
345.940687
20
-1415.799996
11
345.230731
21
-1409.925034
0
LINE
8
Layer 1
10
345.230731
20
-1409.925034
11
344.047480
21
-1404.371856
0
LINE
8
Layer 1
10
344.047480
20
-1404.371856
11
342.390941
21
-1399.140500
0
LINE
8
Layer 1
10
342.390941
20
-1399.140500
11
340.261121
21
-1394.231007
0
LINE
8
Layer 1
10
340.261121
20
-1394.231007
11
337.658026
21
-1389.643416
0
LINE
8
Layer 1
10
337.658026
20
-1389.643416
11
334.581663
21
-1385.377767
0
LINE
8
Layer 1
10
334.581663
20
-1385.377767
11
331.032040
21
-1381.434100
0
LINE
8
Layer 1
10
331.032040
20
-1381.434100
11
327.532285
21
-1378.261290
0
LINE
8
Layer 1
10
327.532285
20
-1378.261290
11
323.758937
21
-1375.462180
0
LINE
8
Layer 1
10
323.758937
20
-1375.462180
11
319.712175
21
-1373.036539
0
LINE
8
Layer 1
10
319.712175
20
-1373.036539
11
315.392179
21
-1370.984138
0
LINE
8
Layer 1
10
315.392179
20
-1370.984138
11
310.799128
21
-1369.304744
0
LINE
8
Layer 1
10
310.799128
20
-1369.304744
11
305.933201
21
-1367.998127
0
LINE
8
Layer 1
10
305.933201
20
-1367.998127
11
300.794579
21
-1367.064056
0
LINE
8
Layer 1
10
300.794579
20
-1367.064056
11
295.383440
21
-1366.502300
0
LINE
8
Layer 1
10
295.383440
20
-1366.502300
11
295.383440
21
-1391.620100
0
LINE
8
Layer 1
10
295.383440
20
-1391.620100
11
297.152160
21
-1392.085954
0
LINE
8
Layer 1
10
297.152160
20
-1392.085954
11
298.835782
21
-1392.686306
0
LINE
8
Layer 1
10
298.835782
20
-1392.686306
11
300.434227
21
-1393.421330
0
LINE
8
Layer 1
10
300.434227
20
-1393.421330
11
301.947416
21
-1394.291200
0
LINE
8
Layer 1
10
301.947416
20
-1394.291200
11
303.375271
21
-1395.296088
0
LINE
8
Layer 1
10
303.375271
20
-1395.296088
11
304.717713
21
-1396.436169
0
LINE
8
Layer 1
10
304.717713
20
-1396.436169
11
305.974662
21
-1397.711615
0
LINE
8
Layer 1
10
305.974662
20
-1397.711615
11
307.146040
21
-1399.122600
0
LINE
8
Layer 1
10
307.146040
20
-1399.122600
11
308.593978
21
-1401.251403
0
LINE
8
Layer 1
10
308.593978
20
-1401.251403
11
309.848943
21
-1403.588986
0
LINE
8
Layer 1
10
309.848943
20
-1403.588986
11
310.910909
21
-1406.135310
0
LINE
8
Layer 1
10
310.910909
20
-1406.135310
11
311.779850
21
-1408.890337
0
LINE
8
Layer 1
10
311.779850
20
-1408.890337
11
312.455739
21
-1411.854029
0
LINE
8
Layer 1
10
312.455739
20
-1411.854029
11
312.938550
21
-1415.026345
0
LINE
8
Layer 1
10
312.938550
20
-1415.026345
11
313.228256
21
-1418.407249
0
LINE
8
Layer 1
10
313.228256
20
-1418.407249
11
313.324830
21
-1421.996700
0
LINE
8
Layer 1
10
313.324830
20
-1421.996700
11
313.249279
21
-1425.336162
0
LINE
8
Layer 1
10
313.249279
20
-1425.336162
11
313.023750
21
-1428.532600
0
LINE
8
Layer 1
10
313.023750
20
-1428.532600
11
312.608156
21
-1431.552500
0
LINE
8
Layer 1
10
312.608156
20
-1431.552500
11
311.968860
21
-1434.357900
0
LINE
8
Layer 1
10
311.968860
20
-1434.357900
11
301.419460
21
-1422.991200
0
LINE
8
Layer 1
10
301.419460
20
-1422.991200
11
295.383490
21
-1428.320600
0
LINE
8
Layer 1
10
295.383490
20
-1428.320600
11
295.383490
21
-1428.432900
0
LINE
8
Layer 1
10
295.383490
20
-1428.432900
11
295.256330
21
-1428.432900
0
LINE
8
Layer 1
10
295.256330
20
-1428.432900
11
282.431530
21
-1439.756300
0
LINE
8
Layer 1
10
282.431530
20
-1439.756300
11
295.245230
21
-1450.565000
0
LINE
8
Layer 1
10
295.245230
20
-1450.565000
11
295.383550
21
-1450.565000
0
LINE
8
Layer 1
10
295.383550
20
-1450.565000
11
295.383550
21
-1450.681700
0
LINE
8
Layer 1
10
295.383550
20
-1450.681700
11
296.747800
21
-1451.832500
0
LINE
8
Layer 1
10
296.747800
20
-1451.832500
11
295.383550
21
-1452.246400
0
LINE
8
Layer 1
10
295.383550
20
-1452.246400
11
295.383550
21
-1477.324800
0
LINE
8
Layer 1
10
295.383550
20
-1477.324800
11
300.149674
21
-1476.840638
0
LINE
8
Layer 1
10
300.149674
20
-1476.840638
11
304.735280
21
-1476.057000
0
LINE
8
Layer 1
10
304.735280
20
-1476.057000
11
308.201024
21
-1475.235797
0
LINE
8
Layer 1
10
308.201024
20
-1475.235797
11
311.516427
21
-1474.263750
0
LINE
8
Layer 1
10
311.516427
20
-1474.263750
11
314.681332
21
-1473.140578
0
LINE
8
Layer 1
10
314.681332
20
-1473.140578
11
317.695580
21
-1471.866000
0
LINE
8
Layer 1
10
317.695580
20
-1471.866000
11
329.600380
21
-1484.794800
0
LINE
8
Layer 1
10
329.600380
20
-1484.794800
11
349.040480
21
-1468.171700
0
LINE
8
Layer 1
10
349.040480
20
-1468.171700
11
335.779080
21
-1457.090000
0
LINE
8
Layer 1
10
335.779080
20
-1457.090000
11
335.779000
21
-1457.090000
0
LINE
8
Layer 1
10
410.086000
20
-1376.390000
11
385.061000
21
-1376.390000
0
LINE
8
Layer 1
10
385.061000
20
-1376.390000
11
385.061000
21
-1484.790000
0
LINE
8
Layer 1
10
385.061000
20
-1484.790000
11
410.086000
21
-1484.790000
0
LINE
8
Layer 1
10
410.086000
20
-1484.790000
11
410.086000
21
-1376.390000
0
LINE
8
Layer 1
10
457.095000
20
-1440.750000
11
460.720873
21
-1438.344159
0
LINE
8
Layer 1
10
460.720873
20
-1438.344159
11
463.913564
21
-1435.529250
0
LINE
8
Layer 1
10
463.913564
20
-1435.529250
11
466.673173
21
-1432.305666
0
LINE
8
Layer 1
10
466.673173
20
-1432.305666
11
468.999800
21
-1428.673800
0
LINE
8
Layer 1
10
468.999800
20
-1428.673800
11
470.845467
21
-1424.713692
0
LINE
8
Layer 1
10
470.845467
20
-1424.713692
11
472.164321
21
-1420.505062
0
LINE
8
Layer 1
10
472.164321
20
-1420.505062
11
472.955943
21
-1416.047602
0
LINE
8
Layer 1
10
472.955943
20
-1416.047602
11
473.219910
21
-1411.341000
0
LINE
8
Layer 1
10
473.219910
20
-1411.341000
11
473.031497
21
-1407.141034
0
LINE
8
Layer 1
10
473.031497
20
-1407.141034
11
472.466274
21
-1403.207444
0
LINE
8
Layer 1
10
472.466274
20
-1403.207444
11
471.524268
21
-1399.540207
0
LINE
8
Layer 1
10
471.524268
20
-1399.540207
11
470.205505
21
-1396.139300
0
LINE
8
Layer 1
10
470.205505
20
-1396.139300
11
468.510012
21
-1393.004699
0
LINE
8
Layer 1
10
468.510012
20
-1393.004699
11
466.437814
21
-1390.136381
0
LINE
8
Layer 1
10
466.437814
20
-1390.136381
11
463.988938
21
-1387.534323
0
LINE
8
Layer 1
10
463.988938
20
-1387.534323
11
461.163410
21
-1385.198500
0
LINE
8
Layer 1
10
461.163410
20
-1385.198500
11
457.970096
21
-1383.134119
0
LINE
8
Layer 1
10
457.970096
20
-1383.134119
11
454.419076
21
-1381.344917
0
LINE
8
Layer 1
10
454.419076
20
-1381.344917
11
450.510310
21
-1379.830916
0
LINE
8
Layer 1
10
450.510310
20
-1379.830916
11
446.243760
21
-1378.592138
0
LINE
8
Layer 1
10
446.243760
20
-1378.592138
11
441.619385
21
-1377.628604
0
LINE
8
Layer 1
10
441.619385
20
-1377.628604
11
436.637144
21
-1376.940339
0
LINE
8
Layer 1
10
436.637144
20
-1376.940339
11
431.296999
21
-1376.527363
0
LINE
8
Layer 1
10
431.296999
20
-1376.527363
11
425.598910
21
-1376.389700
0
LINE
8
Layer 1
10
425.598910
20
-1376.389700
11
421.221100
21
-1376.389700
0
LINE
8
Layer 1
10
421.221100
20
-1376.389700
11
421.221100
21
-1400.543200
0
LINE
8
Layer 1
10
421.221100
20
-1400.543200
11
425.598910
21
-1400.543200
0
LINE
8
Layer 1
10
425.598910
20
-1400.543200
11
428.941703
21
-1400.734209
0
LINE
8
Layer 1
10
428.941703
20
-1400.734209
11
431.889341
21
-1401.307100
0
LINE
8
Layer 1
10
431.889341
20
-1401.307100
11
434.442039
21
-1402.261666
0
LINE
8
Layer 1
10
434.442039
20
-1402.261666
11
436.600010
21
-1403.597700
0
LINE
8
Layer 1
10
436.600010
20
-1403.597700
11
438.313623
21
-1405.290077
0
LINE
8
Layer 1
10
438.313623
20
-1405.290077
11
439.538023
21
-1407.310513
0
LINE
8
Layer 1
10
439.538023
20
-1407.310513
11
440.272893
21
-1409.659017
0
LINE
8
Layer 1
10
440.272893
20
-1409.659017
11
440.517920
21
-1412.335600
0
LINE
8
Layer 1
10
440.517920
20
-1412.335600
11
440.253961
21
-1415.270769
0
LINE
8
Layer 1
10
440.253961
20
-1415.270769
11
439.924102
21
-1416.594906
0
LINE
8
Layer 1
10
439.924102
20
-1416.594906
11
439.462401
21
-1417.823475
0
LINE
8
Layer 1
10
439.462401
20
-1417.823475
11
438.868919
21
-1418.956522
0
LINE
8
Layer 1
10
438.868919
20
-1418.956522
11
438.143713
21
-1419.994094
0
LINE
8
Layer 1
10
438.143713
20
-1419.994094
11
437.286844
21
-1420.936238
0
LINE
8
Layer 1
10
437.286844
20
-1420.936238
11
436.298370
21
-1421.783000
0
LINE
8
Layer 1
10
436.298370
20
-1421.783000
11
433.943482
21
-1423.181469
0
LINE
8
Layer 1
10
433.943482
20
-1423.181469
11
431.099063
21
-1424.180375
0
LINE
8
Layer 1
10
431.099063
20
-1424.180375
11
427.764896
21
-1424.779719
0
LINE
8
Layer 1
10
427.764896
20
-1424.779719
11
423.940770
21
-1424.979500
0
LINE
8
Layer 1
10
423.940770
20
-1424.979500
11
421.221120
21
-1424.979500
0
LINE
8
Layer 1
10
421.221120
20
-1424.979500
11
421.221120
21
-1449.129800
0
LINE
8
Layer 1
10
421.221120
20
-1449.129800
11
424.242410
21
-1449.061800
0
LINE
8
Layer 1
10
424.242410
20
-1449.061800
11
427.557610
21
-1448.848900
0
LINE
8
Layer 1
10
427.557610
20
-1448.848900
11
443.532010
21
-1484.793700
0
LINE
8
Layer 1
10
443.532010
20
-1484.793700
11
480.152010
21
-1484.793700
0
LINE
8
Layer 1
10
480.152010
20
-1484.793700
11
457.095010
21
-1440.749700
0
LINE
8
Layer 1
10
457.095010
20
-1440.749700
11
457.095000
21
-1440.750000
0
LINE
8
Layer 1
10
704.868000
20
111.362000
11
691.752300
21
54.885100
0
LINE
8
Layer 1
10
691.752300
20
54.885100
11
680.379000
21
54.884700
0
LINE
8
Layer 1
10
680.379000
20
54.884700
11
667.263500
21
111.361600
0
LINE
8
Layer 1
10
667.263500
20
111.361600
11
678.791000
21
111.362000
0
LINE
8
Layer 1
10
678.791000
20
111.362000
11
686.014710
21
71.465300
0
LINE
8
Layer 1
10
686.014710
20
71.465300
11
686.219000
21
71.464900
0
LINE
8
Layer 1
10
686.219000
20
71.464900
11
693.340360
21
111.361600
0
LINE
8
Layer 1
10
693.340360
20
111.361600
11
704.868000
21
111.362000
0
LINE
8
Layer 1
10
736.770000
20
88.193600
11
730.621990
21
54.884800
0
LINE
8
Layer 1
10
730.621990
20
54.884800
11
719.453190
21
54.884800
0
LINE
8
Layer 1
10
719.453190
20
54.884800
11
711.512230
21
111.361700
0
LINE
8
Layer 1
10
711.512230
20
111.361700
11
722.783430
21
111.361700
0
LINE
8
Layer 1
10
722.783430
20
111.361700
11
724.679100
21
92.634500
0
LINE
8
Layer 1
10
724.679100
20
92.634500
11
725.268227
21
85.529070
0
LINE
8
Layer 1
10
725.268227
20
85.529070
11
725.754987
21
76.054260
0
LINE
8
Layer 1
10
725.754987
20
76.054260
11
726.011062
21
76.054260
0
LINE
8
Layer 1
10
726.011062
20
76.054260
11
727.240672
21
85.232780
0
LINE
8
Layer 1
10
727.240672
20
85.232780
11
728.470262
21
92.708980
0
LINE
8
Layer 1
10
728.470262
20
92.708980
11
732.005362
21
111.361680
0
LINE
8
Layer 1
10
732.005362
20
111.361680
11
741.893172
21
111.361680
0
LINE
8
Layer 1
10
741.893172
20
111.361680
11
745.581982
21
92.634480
0
LINE
8
Layer 1
10
745.581982
20
92.634480
11
746.862772
21
85.232770
0
LINE
8
Layer 1
10
746.862772
20
85.232770
11
748.092382
21
76.054250
0
LINE
8
Layer 1
10
748.092382
20
76.054250
11
748.348648
21
76.054250
0
LINE
8
Layer 1
10
748.348648
20
76.054250
11
748.809635
21
85.529060
0
LINE
8
Layer 1
10
748.809635
20
85.529060
11
749.321976
21
92.634490
0
LINE
8
Layer 1
10
749.321976
20
92.634490
11
751.115116
21
111.361690
0
LINE
8
Layer 1
10
751.115116
20
111.361690
11
762.335116
21
111.361690
0
LINE
8
Layer 1
10
762.335116
20
111.361690
11
754.496506
21
54.884790
0
LINE
8
Layer 1
10
754.496506
20
54.884790
11
743.276506
21
54.884790
0
LINE
8
Layer 1
10
743.276506
20
54.884790
11
736.974946
21
88.193590
0
LINE
8
Layer 1
10
736.974946
20
88.193590
11
736.770048
21
88.193590
0
LINE
8
Layer 1
10
736.770048
20
88.193590
11
736.770000
21
88.193600
0
LINE
8
Layer 1
10
787.346000
20
71.243100
11
781.249340
21
54.884700
0
LINE
8
Layer 1
10
781.249340
20
54.884700
11
769.159000
21
54.884700
0
LINE
8
Layer 1
10
769.159000
20
54.884700
11
781.710900
21
84.862400
0
LINE
8
Layer 1
10
781.710900
20
84.862400
11
769.773700
21
111.361600
0
LINE
8
Layer 1
10
769.773700
20
111.361600
11
781.916000
21
111.362000
0
LINE
8
Layer 1
10
781.916000
20
111.362000
11
788.063840
21
96.113800
0
LINE
8
Layer 1
10
788.063840
20
96.113800
11
788.269000
21
96.113400
0
LINE
8
Layer 1
10
788.269000
20
96.113400
11
794.058390
21
111.361600
0
LINE
8
Layer 1
10
794.058390
20
111.361600
11
806.098000
21
111.362000
0
LINE
8
Layer 1
10
806.098000
20
111.362000
11
793.699600
21
82.864200
0
LINE
8
Layer 1
10
793.699600
20
82.864200
11
806.405300
21
54.885100
0
LINE
8
Layer 1
10
806.405300
20
54.885100
11
794.314000
21
54.884700
0
LINE
8
Layer 1
10
794.314000
20
54.884700
11
787.500100
21
71.243100
0
LINE
8
Layer 1
10
787.500100
20
71.243100
11
787.346000
21
71.243100
0
LINE
8
Layer 1
10
844.224000
20
75.683900
11
844.224000
21
54.884700
0
LINE
8
Layer 1
10
844.224000
20
54.884700
11
833.157600
21
54.884700
0
LINE
8
Layer 1
10
833.157600
20
54.884700
11
833.157600
21
75.683900
0
LINE
8
Layer 1
10
833.157600
20
75.683900
11
819.581000
21
111.361600
0
LINE
8
Layer 1
10
819.581000
20
111.361600
11
832.030600
21
111.361600
0
LINE
8
Layer 1
10
832.030600
20
111.361600
11
836.949020
21
95.965600
0
LINE
8
Layer 1
10
836.949020
20
95.965600
11
837.691855
21
93.300980
0
LINE
8
Layer 1
10
837.691855
20
93.300980
11
838.537262
21
89.377790
0
LINE
8
Layer 1
10
838.537262
20
89.377790
11
838.844460
21
89.377790
0
LINE
8
Layer 1
10
838.844460
20
89.377790
11
839.613136
21
93.004660
0
LINE
8
Layer 1
10
839.613136
20
93.004660
11
840.432784
21
95.965610
0
LINE
8
Layer 1
10
840.432784
20
95.965610
11
845.197484
21
111.361610
0
LINE
8
Layer 1
10
845.197484
20
111.361610
11
857.698384
21
111.361610
0
LINE
8
Layer 1
10
857.698384
20
111.361610
11
844.224084
21
75.683910
0
LINE
8
Layer 1
10
844.224084
20
75.683910
11
844.224000
21
75.683900
0
LINE
8
Layer 1
10
903.690000
20
67.764100
11
903.690000
21
54.884700
0
LINE
8
Layer 1
10
903.690000
20
54.884700
11
875.307000
21
54.884700
0
LINE
8
Layer 1
10
875.307000
20
54.884700
11
875.307000
21
66.653900
0
LINE
8
Layer 1
10
875.307000
20
66.653900
11
890.369800
21
98.259900
0
LINE
8
Layer 1
10
890.369800
20
98.259900
11
890.267582
21
98.482306
0
LINE
8
Layer 1
10
890.267582
20
98.482306
11
875.819000
21
98.482300
0
LINE
8
Layer 1
10
875.819000
20
98.482300
11
875.819000
21
111.362000
0
LINE
8
Layer 1
10
875.819000
20
111.362000
11
903.178000
21
111.362000
0
LINE
8
Layer 1
10
903.178000
20
111.362000
11
903.178000
21
98.852500
0
LINE
8
Layer 1
10
903.178000
20
98.852500
11
888.064100
21
67.985900
0
LINE
8
Layer 1
10
888.064100
20
67.985900
11
888.166318
21
67.764065
0
LINE
8
Layer 1
10
888.166318
20
67.764065
11
903.690000
21
67.764100
0
LINE
8
Layer 1
10
61.938800
20
69.757500
11
61.938800
21
57.645900
0
LINE
8
Layer 1
10
61.938800
20
57.645900
11
26.457400
21
57.645900
0
LINE
8
Layer 1
10
26.457400
20
57.645900
11
26.457400
21
113.995000
0
LINE
8
Layer 1
10
26.457400
20
113.995000
11
61.093900
21
113.995000
0
LINE
8
Layer 1
10
61.093900
20
113.995000
11
61.093900
21
101.883000
0
LINE
8
Layer 1
10
61.093900
20
101.883000
11
41.804600
21
101.883000
0
LINE
8
Layer 1
10
41.804600
20
101.883000
11
41.804600
21
92.282500
0
LINE
8
Layer 1
10
41.804600
20
92.282500
11
59.685800
21
92.282500
0
LINE
8
Layer 1
10
59.685800
20
92.282500
11
59.685800
21
80.170800
0
LINE
8
Layer 1
10
59.685800
20
80.170800
11
41.804600
21
80.170800
0
LINE
8
Layer 1
10
41.804600
20
80.170800
11
41.804600
21
69.757500
0
LINE
8
Layer 1
10
41.804600
20
69.757500
11
61.938800
21
69.757500
0
LINE
8
Layer 1
10
84.746000
20
116.269000
11
119.615000
21
116.269000
0
LINE
8
Layer 1
10
119.615000
20
116.269000
11
119.615000
21
104.157000
0
LINE
8
Layer 1
10
119.615000
20
104.157000
11
100.165000
21
104.157000
0
LINE
8
Layer 1
10
100.165000
20
104.157000
11
100.165000
21
94.556300
0
LINE
8
Layer 1
10
100.165000
20
94.556300
11
118.201000
21
94.556300
0
LINE
8
Layer 1
10
118.201000
20
94.556300
11
118.201000
21
82.444600
0
LINE
8
Layer 1
10
118.201000
20
82.444600
11
100.165000
21
82.444600
0
LINE
8
Layer 1
10
100.165000
20
82.444600
11
100.165000
21
59.919600
0
LINE
8
Layer 1
10
100.165000
20
59.919600
11
84.746000
21
59.919600
0
LINE
8
Layer 1
10
84.746000
20
59.919600
11
84.746000
21
116.269000
0
LINE
8
Layer 1
10
168.105000
20
92.119300
11
190.243000
21
92.119300
0
LINE
8
Layer 1
10
190.243000
20
92.119300
11
190.243000
21
63.760000
0
LINE
8
Layer 1
10
190.243000
20
63.760000
11
184.593436
21
61.571867
0
LINE
8
Layer 1
10
184.593436
20
61.571867
11
179.810700
21
60.178180
0
LINE
8
Layer 1
10
179.810700
20
60.178180
11
175.381274
21
59.430362
0
LINE
8
Layer 1
10
175.381274
20
59.430362
11
170.792480
21
59.181135
0
LINE
8
Layer 1
10
170.792480
20
59.181135
11
167.778237
21
59.300570
0
LINE
8
Layer 1
10
167.778237
20
59.300570
11
164.924221
21
59.658873
0
LINE
8
Layer 1
10
164.924221
20
59.658873
11
162.230446
21
60.256043
0
LINE
8
Layer 1
10
162.230446
20
60.256043
11
159.696930
21
61.092081
0
LINE
8
Layer 1
10
159.696930
20
61.092081
11
157.323689
21
62.166985
0
LINE
8
Layer 1
10
157.323689
20
62.166985
11
155.110739
21
63.480754
0
LINE
8
Layer 1
10
155.110739
20
63.480754
11
153.058098
21
65.033388
0
LINE
8
Layer 1
10
153.058098
20
65.033388
11
151.165780
21
66.824885
0
LINE
8
Layer 1
10
151.165780
20
66.824885
11
149.466408
21
68.828685
0
LINE
8
Layer 1
10
149.466408
20
68.828685
11
147.993699
21
71.018239
0
LINE
8
Layer 1
10
147.993699
20
71.018239
11
146.747629
21
73.393568
0
LINE
8
Layer 1
10
146.747629
20
73.393568
11
145.728173
21
75.954689
0
LINE
8
Layer 1
10
145.728173
20
75.954689
11
144.935305
21
78.701622
0
LINE
8
Layer 1
10
144.935305
20
78.701622
11
144.369003
21
81.634386
0
LINE
8
Layer 1
10
144.369003
20
81.634386
11
144.029239
21
84.753001
0
LINE
8
Layer 1
10
144.029239
20
84.753001
11
143.915990
21
88.057485
0
LINE
8
Layer 1
10
143.915990
20
88.057485
11
144.035340
21
91.395745
0
LINE
8
Layer 1
10
144.035340
20
91.395745
11
144.393389
21
94.542457
0
LINE
8
Layer 1
10
144.393389
20
94.542457
11
144.990138
21
97.497630
0
LINE
8
Layer 1
10
144.990138
20
97.497630
11
145.825586
21
100.261271
0
LINE
8
Layer 1
10
145.825586
20
100.261271
11
146.899734
21
102.833389
0
LINE
8
Layer 1
10
146.899734
20
102.833389
11
148.212580
21
105.213992
0
LINE
8
Layer 1
10
148.212580
20
105.213992
11
149.764126
21
107.403088
0
LINE
8
Layer 1
10
149.764126
20
107.403088
11
151.554370
21
109.400685
0
LINE
8
Layer 1
10
151.554370
20
109.400685
11
153.553662
21
111.183326
0
LINE
8
Layer 1
10
153.553662
20
111.183326
11
155.731949
21
112.728365
0
LINE
8
Layer 1
10
155.731949
20
112.728365
11
158.089236
21
114.035776
0
LINE
8
Layer 1
10
158.089236
20
114.035776
11
160.625529
21
115.105534
0
LINE
8
Layer 1
10
160.625529
20
115.105534
11
163.340833
21
115.937612
0
LINE
8
Layer 1
10
163.340833
20
115.937612
11
166.235155
21
116.531985
0
LINE
8
Layer 1
10
166.235155
20
116.531985
11
169.308498
21
116.888628
0
LINE
8
Layer 1
10
169.308498
20
116.888628
11
172.560870
21
117.007515
0
LINE
8
Layer 1
10
172.560870
20
117.007515
11
177.175949
21
116.794801
0
LINE
8
Layer 1
10
177.175949
20
116.794801
11
181.401920
21
116.158053
0
LINE
8
Layer 1
10
181.401920
20
116.158053
11
185.521656
21
115.022439
0
LINE
8
Layer 1
10
185.521656
20
115.022439
11
189.818550
21
113.314753
0
LINE
8
Layer 1
10
189.818550
20
113.314753
11
189.818550
21
99.061453
0
LINE
8
Layer 1
10
189.818550
20
99.061453
11
185.663020
21
101.424103
0
LINE
8
Layer 1
10
185.663020
20
101.424103
11
183.651770
21
102.328878
0
LINE
8
Layer 1
10
183.651770
20
102.328878
11
181.685060
21
103.049293
0
LINE
8
Layer 1
10
181.685060
20
103.049293
11
179.717597
21
103.598402
0
LINE
8
Layer 1
10
179.717597
20
103.598402
11
177.706240
21
103.990783
0
LINE
8
Layer 1
10
177.706240
20
103.990783
11
175.650791
21
104.226307
0
LINE
8
Layer 1
10
175.650791
20
104.226307
11
173.551050
21
104.304843
0
LINE
8
Layer 1
10
173.551050
20
104.304843
11
170.146984
21
104.057797
0
LINE
8
Layer 1
10
170.146984
20
104.057797
11
167.220465
21
103.316806
0
LINE
8
Layer 1
10
167.220465
20
103.316806
11
165.936300
21
102.761148
0
LINE
8
Layer 1
10
165.936300
20
102.761148
11
164.771539
21
102.082085
0
LINE
8
Layer 1
10
164.771539
20
102.082085
11
163.726187
21
101.279644
0
LINE
8
Layer 1
10
163.726187
20
101.279644
11
162.800250
21
100.353853
0
LINE
8
Layer 1
10
162.800250
20
100.353853
11
161.987834
21
99.298366
0
LINE
8
Layer 1
10
161.987834
20
99.298366
11
161.283800
21
98.107901
0
LINE
8
Layer 1
10
161.283800
20
98.107901
11
160.200806
21
95.322084
0
LINE
8
Layer 1
10
160.200806
20
95.322084
11
159.551119
21
91.996502
0
LINE
8
Layer 1
10
159.551119
20
91.996502
11
159.334590
21
88.131253
0
LINE
8
Layer 1
10
159.334590
20
88.131253
11
159.517993
21
84.228215
0
LINE
8
Layer 1
10
159.517993
20
84.228215
11
160.068267
21
80.865579
0
LINE
8
Layer 1
10
160.068267
20
80.865579
11
160.985510
21
78.043230
0
LINE
8
Layer 1
10
160.985510
20
78.043230
11
162.269820
21
75.761053
0
LINE
8
Layer 1
10
162.269820
20
75.761053
11
163.054800
21
74.817455
0
LINE
8
Layer 1
10
163.054800
20
74.817455
11
163.942638
21
73.999764
0
LINE
8
Layer 1
10
163.942638
20
73.999764
11
164.933329
21
73.307949
0
LINE
8
Layer 1
10
164.933329
20
73.307949
11
166.026865
21
72.741983
0
LINE
8
Layer 1
10
166.026865
20
72.741983
11
167.223241
21
72.301837
0
LINE
8
Layer 1
10
167.223241
20
72.301837
11
168.522452
21
71.987482
0
LINE
8
Layer 1
10
168.522452
20
71.987482
11
171.429350
21
71.736033
0
LINE
8
Layer 1
10
171.429350
20
71.736033
11
173.161920
21
71.847034
0
LINE
8
Layer 1
10
173.161920
20
71.847034
11
174.824370
21
72.179291
0
LINE
8
Layer 1
10
174.824370
20
72.179291
11
174.824370
21
80.007461
0
LINE
8
Layer 1
10
174.824370
20
80.007461
11
168.104990
21
80.007461
0
LINE
8
Layer 1
10
168.104990
20
80.007461
11
168.104990
21
92.119361
0
LINE
8
Layer 1
10
168.104990
20
92.119361
11
168.105000
21
92.119300
0
LINE
8
Layer 1
10
225.744000
20
82.444400
11
225.744000
21
60.288900
0
LINE
8
Layer 1
10
225.744000
20
60.288900
11
210.325000
21
60.288900
0
LINE
8
Layer 1
10
210.325000
20
60.288900
11
210.325000
21
116.638000
0
LINE
8
Layer 1
10
210.325000
20
116.638000
11
225.744000
21
116.638000
0
LINE
8
Layer 1
10
225.744000
20
116.638000
11
225.744000
21
95.294900
0
LINE
8
Layer 1
10
225.744000
20
95.294900
11
241.021000
21
95.294900
0
LINE
8
Layer 1
10
241.021000
20
95.294900
11
241.021000
21
116.638000
0
LINE
8
Layer 1
10
241.021000
20
116.638000
11
256.440000
21
116.638000
0
LINE
8
Layer 1
10
256.440000
20
116.638000
11
256.440000
21
60.288900
0
LINE
8
Layer 1
10
256.440000
20
60.288900
11
241.021000
21
60.288900
0
LINE
8
Layer 1
10
241.021000
20
60.288900
11
241.021000
21
82.444400
0
LINE
8
Layer 1
10
241.021000
20
82.444400
11
225.744000
21
82.444400
0
LINE
8
Layer 1
10
179.093000
20
172.848000
11
179.273360
21
169.611686
0
LINE
8
Layer 1
10
179.273360
20
169.611686
11
179.814504
21
166.802481
0
LINE
8
Layer 1
10
179.814504
20
166.802481
11
180.716531
21
164.420486
0
LINE
8
Layer 1
10
180.716531
20
164.420486
11
181.979540
21
162.465800
0
LINE
8
Layer 1
10
181.979540
20
162.465800
11
183.602672
21
160.941830
0
LINE
8
Layer 1
10
183.602672
20
160.941830
11
185.586945
21
159.853389
0
LINE
8
Layer 1
10
185.586945
20
159.853389
11
187.932306
21
159.200388
0
LINE
8
Layer 1
10
187.932306
20
159.200388
11
190.638700
21
158.982740
0
LINE
8
Layer 1
10
190.638700
20
158.982740
11
194.354765
21
159.267206
0
LINE
8
Layer 1
10
194.354765
20
159.267206
11
198.143460
21
160.121480
0
LINE
8
Layer 1
10
198.143460
20
160.121480
11
201.787356
21
161.477737
0
LINE
8
Layer 1
10
201.787356
20
161.477737
11
205.070990
21
163.269720
0
LINE
8
Layer 1
10
205.070990
20
163.269720
11
205.070990
21
150.409320
0
LINE
8
Layer 1
10
205.070990
20
150.409320
11
203.275955
21
149.527780
0
LINE
8
Layer 1
10
203.275955
20
149.527780
11
201.354565
21
148.759405
0
LINE
8
Layer 1
10
201.354565
20
148.759405
11
197.133210
21
147.562430
0
LINE
8
Layer 1
10
197.133210
20
147.562430
11
192.568524
21
146.834349
0
LINE
8
Layer 1
10
192.568524
20
146.834349
11
187.824490
21
146.591247
0
LINE
8
Layer 1
10
187.824490
20
146.591247
11
185.066477
21
146.703201
0
LINE
8
Layer 1
10
185.066477
20
146.703201
11
182.457296
21
147.039081
0
LINE
8
Layer 1
10
182.457296
20
147.039081
11
179.996966
21
147.598914
0
LINE
8
Layer 1
10
179.996966
20
147.598914
11
177.685504
21
148.382726
0
LINE
8
Layer 1
10
177.685504
20
148.382726
11
175.522927
21
149.390543
0
LINE
8
Layer 1
10
175.522927
20
149.390543
11
173.509255
21
150.622393
0
LINE
8
Layer 1
10
173.509255
20
150.622393
11
171.644503
21
152.078302
0
LINE
8
Layer 1
10
171.644503
20
152.078302
11
169.928690
21
153.758297
0
LINE
8
Layer 1
10
169.928690
20
153.758297
11
168.389479
21
155.623186
0
LINE
8
Layer 1
10
168.389479
20
155.623186
11
167.055539
21
157.634671
0
LINE
8
Layer 1
10
167.055539
20
157.634671
11
165.926856
21
159.792734
0
LINE
8
Layer 1
10
165.926856
20
159.792734
11
165.003419
21
162.097357
0
LINE
8
Layer 1
10
165.003419
20
162.097357
11
164.285213
21
164.548523
0
LINE
8
Layer 1
10
164.285213
20
164.548523
11
163.772225
21
167.146213
0
LINE
8
Layer 1
10
163.772225
20
167.146213
11
163.464441
21
169.890411
0
LINE
8
Layer 1
10
163.464441
20
169.890411
11
163.361850
21
172.781097
0
LINE
8
Layer 1
10
163.361850
20
172.781097
11
163.470633
21
175.717775
0
LINE
8
Layer 1
10
163.470633
20
175.717775
11
163.796995
21
178.499559
0
LINE
8
Layer 1
10
163.796995
20
178.499559
11
164.340955
21
181.126453
0
LINE
8
Layer 1
10
164.340955
20
181.126453
11
165.102534
21
183.598461
0
LINE
8
Layer 1
10
165.102534
20
183.598461
11
166.081751
21
185.915585
0
LINE
8
Layer 1
10
166.081751
20
185.915585
11
167.278626
21
188.077830
0
LINE
8
Layer 1
10
167.278626
20
188.077830
11
168.693179
21
190.085200
0
LINE
8
Layer 1
10
168.693179
20
190.085200
11
170.325430
21
191.937697
0
LINE
8
Layer 1
10
170.325430
20
191.937697
11
172.149090
21
193.601566
0
LINE
8
Layer 1
10
172.149090
20
193.601566
11
174.138485
21
195.043682
0
LINE
8
Layer 1
10
174.138485
20
195.043682
11
176.293633
21
196.264014
0
LINE
8
Layer 1
10
176.293633
20
196.264014
11
178.614554
21
197.262533
0
LINE
8
Layer 1
10
178.614554
20
197.262533
11
181.101265
21
198.039211
0
LINE
8
Layer 1
10
181.101265
20
198.039211
11
183.753786
21
198.594017
0
LINE
8
Layer 1
10
183.753786
20
198.594017
11
186.572135
21
198.926922
0
LINE
8
Layer 1
10
186.572135
20
198.926922
11
189.556330
21
199.037897
0
LINE
8
Layer 1
10
189.556330
20
199.037897
11
193.732279
21
198.844969
0
LINE
8
Layer 1
10
193.732279
20
198.844969
11
197.602220
21
198.267410
0
LINE
8
Layer 1
10
197.602220
20
198.267410
11
201.236880
21
197.304388
0
LINE
8
Layer 1
10
201.236880
20
197.304388
11
204.709960
21
195.956560
0
LINE
8
Layer 1
10
204.709960
20
195.956560
11
204.709960
21
182.761360
0
LINE
8
Layer 1
10
204.709960
20
182.761360
11
201.525387
21
184.552515
0
LINE
8
Layer 1
10
201.525387
20
184.552515
11
198.323880
21
185.775560
0
LINE
8
Layer 1
10
198.323880
20
185.775560
11
194.904939
21
186.478666
0
LINE
8
Layer 1
10
194.904939
20
186.478666
11
191.071660
21
186.713270
0
LINE
8
Layer 1
10
191.071660
20
186.713270
11
188.205433
21
186.499765
0
LINE
8
Layer 1
10
188.205433
20
186.499765
11
185.740731
21
185.859247
0
LINE
8
Layer 1
10
185.740731
20
185.859247
11
183.677461
21
184.791714
0
LINE
8
Layer 1
10
183.677461
20
184.791714
11
182.015530
21
183.297160
0
LINE
8
Layer 1
10
182.015530
20
183.297160
11
180.736898
21
181.363037
0
LINE
8
Layer 1
10
180.736898
20
181.363037
11
179.823589
21
178.976797
0
LINE
8
Layer 1
10
179.823589
20
178.976797
11
179.275602
21
176.138439
0
LINE
8
Layer 1
10
179.275602
20
176.138439
11
179.092940
21
172.847960
0
LINE
8
Layer 1
10
179.092940
20
172.847960
11
179.093000
21
172.848000
0
LINE
8
Layer 1
10
59.327400
20
197.385000
11
53.751600
21
173.326200
0
LINE
8
Layer 1
10
53.751600
20
173.326200
11
55.607130
21
166.953870
0
LINE
8
Layer 1
10
55.607130
20
166.953870
11
46.514700
21
166.954000
0
LINE
8
Layer 1
10
46.514700
20
166.954000
11
47.846580
21
171.380660
0
LINE
8
Layer 1
10
47.846580
20
171.380660
11
53.945900
21
197.698460
0
LINE
8
Layer 1
10
53.945900
20
197.698460
11
42.906700
21
197.698000
0
LINE
8
Layer 1
10
42.906700
20
197.698000
11
24.577900
21
146.591000
0
LINE
8
Layer 1
10
24.577900
20
146.591000
11
40.814100
21
146.591000
0
LINE
8
Layer 1
10
40.814100
20
146.591000
11
43.916940
21
155.968340
0
LINE
8
Layer 1
10
43.916940
20
155.968340
11
58.204800
21
155.968000
0
LINE
8
Layer 1
10
58.204800
20
155.968000
11
61.307640
21
146.590660
0
LINE
8
Layer 1
10
61.307640
20
146.590660
11
77.543900
21
146.591000
0
LINE
8
Layer 1
10
77.543900
20
146.591000
11
59.327400
21
197.384700
0
LINE
8
Calque 1
10
279.789000
20
30.502900
11
279.788950
21
30.502900
0
LINE
8
Calque 1
10
279.788950
20
30.502900
11
277.207569
21
30.719597
0
LINE
8
Calque 1
10
277.207569
20
30.719597
11
274.803263
21
31.341096
0
LINE
8
Calque 1
10
274.803263
20
31.341096
11
272.627538
21
32.324504
0
LINE
8
Calque 1
10
272.627538
20
32.324504
11
270.731900
21
33.626930
0
LINE
8
Calque 1
10
270.731900
20
33.626930
11
269.167856
21
35.205484
0
LINE
8
Calque 1
10
269.167856
20
35.205484
11
267.986913
21
37.017274
0
LINE
8
Calque 1
10
267.986913
20
37.017274
11
267.240575
21
39.019410
0
LINE
8
Calque 1
10
267.240575
20
39.019410
11
266.980350
21
41.169000
0
LINE
8
Calque 1
10
266.980350
20
41.169000
11
266.980350
21
132.018000
0
LINE
8
Calque 1
10
266.980350
20
132.018000
11
267.240576
21
134.167587
0
LINE
8
Calque 1
10
267.240576
20
134.167587
11
267.986915
21
136.169721
0
LINE
8
Calque 1
10
267.986915
20
136.169721
11
269.167862
21
137.981512
0
LINE
8
Calque 1
10
269.167862
20
137.981512
11
270.731907
21
139.560066
0
LINE
8
Calque 1
10
270.731907
20
139.560066
11
272.627546
21
140.862494
0
LINE
8
Calque 1
10
272.627546
20
140.862494
11
274.803271
21
141.845903
0
LINE
8
Calque 1
10
274.803271
20
141.845903
11
277.207574
21
142.467402
0
LINE
8
Calque 1
10
277.207574
20
142.467402
11
279.788950
21
142.684100
0
LINE
8
Calque 1
10
279.788950
20
142.684100
11
279.789000
21
142.684100
0
LINE
8
Calque 1
10
279.789000
20
142.684100
11
282.370387
21
142.467403
0
LINE
8
Calque 1
10
282.370387
20
142.467403
11
284.774696
21
141.845907
0
LINE
8
Calque 1
10
284.774696
20
141.845907
11
286.950421
21
140.862502
0
LINE
8
Calque 1
10
286.950421
20
140.862502
11
288.846058
21
139.560078
0
LINE
8
Calque 1
10
288.846058
20
139.560078
11
290.410099
21
137.981525
0
LINE
8
Calque 1
10
290.410099
20
137.981525
11
291.591040
21
136.169734
0
LINE
8
Calque 1
10
291.591040
20
136.169734
11
292.337376
21
134.167596
0
LINE
8
Calque 1
10
292.337376
20
134.167596
11
292.597600
21
132.018000
0
LINE
8
Calque 1
10
292.597600
20
132.018000
11
292.597600
21
41.169000
0
LINE
8
Calque 1
10
292.597600
20
41.169000
11
292.337375
21
39.019413
0
LINE
8
Calque 1
10
292.337375
20
39.019413
11
291.591037
21
37.017279
0
LINE
8
Calque 1
10
291.591037
20
37.017279
11
290.410094
21
35.205488
0
LINE
8
Calque 1
10
290.410094
20
35.205488
11
288.846050
21
33.626934
0
LINE
8
Calque 1
10
288.846050
20
33.626934
11
286.950412
21
32.324506
0
LINE
8
Calque 1
10
286.950412
20
32.324506
11
284.774687
21
31.341097
0
LINE
8
Calque 1
10
284.774687
20
31.341097
11
282.370381
21
30.719598
0
LINE
8
Calque 1
10
282.370381
20
30.719598
11
279.789000
21
30.502900
0
LINE
8
Calque 1
10
279.789000
20
30.502900
11
279.789000
21
30.502900
0
LINE
8
Calque 1
10
606.446000
20
28.766100
11
606.445950
21
28.766100
0
LINE
8
Calque 1
10
606.445950
20
28.766100
11
603.864569
21
28.982797
0
LINE
8
Calque 1
10
603.864569
20
28.982797
11
601.460262
21
29.604296
0
LINE
8
Calque 1
10
601.460262
20
29.604296
11
599.284538
21
30.587704
0
LINE
8
Calque 1
10
599.284538
20
30.587704
11
597.388900
21
31.890130
0
LINE
8
Calque 1
10
597.388900
20
31.890130
11
595.824856
21
33.468684
0
LINE
8
Calque 1
10
595.824856
20
33.468684
11
594.643913
21
35.280474
0
LINE
8
Calque 1
10
594.643913
20
35.280474
11
593.897575
21
37.282610
0
LINE
8
Calque 1
10
593.897575
20
37.282610
11
593.637350
21
39.432200
0
LINE
8
Calque 1
10
593.637350
20
39.432200
11
593.637350
21
130.281200
0
LINE
8
Calque 1
10
593.637350
20
130.281200
11
593.897576
21
132.430787
0
LINE
8
Calque 1
10
593.897576
20
132.430787
11
594.643915
21
134.432921
0
LINE
8
Calque 1
10
594.643915
20
134.432921
11
595.824862
21
136.244712
0
LINE
8
Calque 1
10
595.824862
20
136.244712
11
597.388907
21
137.823266
0
LINE
8
Calque 1
10
597.388907
20
137.823266
11
599.284546
21
139.125694
0
LINE
8
Calque 1
10
599.284546
20
139.125694
11
601.460271
21
140.109103
0
LINE
8
Calque 1
10
601.460271
20
140.109103
11
603.864574
21
140.730602
0
LINE
8
Calque 1
10
603.864574
20
140.730602
11
606.445950
21
140.947300
0
LINE
8
Calque 1
10
606.445950
20
140.947300
11
606.446000
21
140.947300
0
LINE
8
Calque 1
10
606.446000
20
140.947300
11
609.027387
21
140.730603
0
LINE
8
Calque 1
10
609.027387
20
140.730603
11
611.431696
21
140.109107
0
LINE
8
Calque 1
10
611.431696
20
140.109107
11
613.607421
21
139.125702
0
LINE
8
Calque 1
10
613.607421
20
139.125702
11
615.503058
21
137.823278
0
LINE
8
Calque 1
10
615.503058
20
137.823278
11
617.067099
21
136.244725
0
LINE
8
Calque 1
10
617.067099
20
136.244725
11
618.248040
21
134.432934
0
LINE
8
Calque 1
10
618.248040
20
134.432934
11
618.994376
21
132.430796
0
LINE
8
Calque 1
10
618.994376
20
132.430796
11
619.254600
21
130.281200
0
LINE
8
Calque 1
10
619.254600
20
130.281200
11
619.254600
21
39.432200
0
LINE
8
Calque 1
10
619.254600
20
39.432200
11
618.994375
21
37.282613
0
LINE
8
Calque 1
10
618.994375
20
37.282613
11
618.248038
21
35.280479
0
LINE
8
Calque 1
10
618.248038
20
35.280479
11
617.067094
21
33.468688
0
LINE
8
Calque 1
10
617.067094
20
33.468688
11
615.503050
21
31.890134
0
LINE
8
Calque 1
10
615.503050
20
31.890134
11
613.607413
21
30.587706
0
LINE
8
Calque 1
10
613.607413
20
30.587706
11
611.431687
21
29.604297
0
LINE
8
Calque 1
10
611.431687
20
29.604297
11
609.027381
21
28.982798
0
LINE
8
Calque 1
10
609.027381
20
28.982798
11
606.446000
21
28.766100
0
LINE
8
Calque 1
10
606.446000
20
28.766100
11
606.446000
21
28.766100
0
LINE
8
Calque 1
10
274.153000
20
13.799600
11
33.595000
21
13.799600
0
LINE
8
Calque 1
10
33.595000
20
13.799600
11
30.709590
21
13.945301
0
LINE
8
Calque 1
10
30.709590
20
13.945301
11
27.907529
21
14.372947
0
LINE
8
Calque 1
10
27.907529
20
14.372947
11
25.203004
21
15.068353
0
LINE
8
Calque 1
10
25.203004
20
15.068353
11
22.610198
21
16.017333
0
LINE
8
Calque 1
10
22.610198
20
16.017333
11
20.143299
21
17.205702
0
LINE
8
Calque 1
10
20.143299
20
17.205702
11
17.816490
21
18.619274
0
LINE
8
Calque 1
10
17.816490
20
18.619274
11
15.643958
21
20.243864
0
LINE
8
Calque 1
10
15.643958
20
20.243864
11
13.639888
21
22.065288
0
LINE
8
Calque 1
10
13.639888
20
22.065288
11
11.818464
21
24.069358
0
LINE
8
Calque 1
10
11.818464
20
24.069358
11
10.193874
21
26.241890
0
LINE
8
Calque 1
10
10.193874
20
26.241890
11
8.780302
21
28.568699
0
LINE
8
Calque 1
10
8.780302
20
28.568699
11
7.591933
21
31.035598
0
LINE
8
Calque 1
10
7.591933
20
31.035598
11
6.642953
21
33.628404
0
LINE
8
Calque 1
10
6.642953
20
33.628404
11
5.947547
21
36.332929
0
LINE
8
Calque 1
10
5.947547
20
36.332929
11
5.519901
21
39.134990
0
LINE
8
Calque 1
10
5.519901
20
39.134990
11
5.374200
21
42.020400
0
LINE
8
Calque 1
10
5.374200
20
42.020400
11
5.374200
21
195.578400
0
LINE
8
Calque 1
10
5.374200
20
195.578400
11
5.519901
21
198.463810
0
LINE
8
Calque 1
10
5.519901
20
198.463810
11
5.947547
21
201.265871
0
LINE
8
Calque 1
10
5.947547
20
201.265871
11
6.642953
21
203.970396
0
LINE
8
Calque 1
10
6.642953
20
203.970396
11
7.591933
21
206.563202
0
LINE
8
Calque 1
10
7.591933
20
206.563202
11
8.780302
21
209.030101
0
LINE
8
Calque 1
10
8.780302
20
209.030101
11
10.193874
21
211.356910
0
LINE
8
Calque 1
10
10.193874
20
211.356910
11
11.818464
21
213.529442
0
LINE
8
Calque 1
10
11.818464
20
213.529442
11
13.639888
21
215.533512
0
LINE
8
Calque 1
10
13.639888
20
215.533512
11
15.643958
21
217.354936
0
LINE
8
Calque 1
10
15.643958
20
217.354936
11
17.816490
21
218.979526
0
LINE
8
Calque 1
10
17.816490
20
218.979526
11
20.143299
21
220.393098
0
LINE
8
Calque 1
10
20.143299
20
220.393098
11
22.610198
21
221.581467
0
LINE
8
Calque 1
10
22.610198
20
221.581467
11
25.203004
21
222.530447
0
LINE
8
Calque 1
10
25.203004
20
222.530447
11
27.907529
21
223.225853
0
LINE
8
Calque 1
10
27.907529
20
223.225853
11
30.709590
21
223.653499
0
LINE
8
Calque 1
10
30.709590
20
223.653499
11
33.595000
21
223.799200
0
LINE
8
Calque 1
10
33.595000
20
223.799200
11
274.153000
21
223.799200
0
LINE
8
Calque 1
10
274.153000
20
223.799200
11
277.038410
21
223.653499
0
LINE
8
Calque 1
10
277.038410
20
223.653499
11
279.840471
21
223.225853
0
LINE
8
Calque 1
10
279.840471
20
223.225853
11
282.544996
21
222.530447
0
LINE
8
Calque 1
10
282.544996
20
222.530447
11
285.137802
21
221.581467
0
LINE
8
Calque 1
10
285.137802
20
221.581467
11
287.604701
21
220.393098
0
LINE
8
Calque 1
10
287.604701
20
220.393098
11
289.931510
21
218.979526
0
LINE
8
Calque 1
10
289.931510
20
218.979526
11
292.104042
21
217.354936
0
LINE
8
Calque 1
10
292.104042
20
217.354936
11
294.108113
21
215.533512
0
LINE
8
Calque 1
10
294.108113
20
215.533512
11
295.929536
21
213.529442
0
LINE
8
Calque 1
10
295.929536
20
213.529442
11
297.554126
21
211.356910
0
LINE
8
Calque 1
10
297.554126
20
211.356910
11
298.967698
21
209.030101
0
LINE
8
Calque 1
10
298.967698
20
209.030101
11
300.156067
21
206.563202
0
LINE
8
Calque 1
10
300.156067
20
206.563202
11
301.105047
21
203.970396
0
LINE
8
Calque 1
10
301.105047
20
203.970396
11
301.800453
21
201.265871
0
LINE
8
Calque 1
10
301.800453
20
201.265871
11
302.228099
21
198.463810
0
LINE
8
Calque 1
10
302.228099
20
198.463810
11
302.373800
21
195.578400
0
LINE
8
Calque 1
10
302.373800
20
195.578400
11
302.373800
21
42.020400
0
LINE
8
Calque 1
10
302.373800
20
42.020400
11
302.228099
21
39.134990
0
LINE
8
Calque 1
10
302.228099
20
39.134990
11
301.800453
21
36.332929
0
LINE
8
Calque 1
10
301.800453
20
36.332929
11
301.105047
21
33.628404
0
LINE
8
Calque 1
10
301.105047
20
33.628404
11
300.156067
21
31.035598
0
LINE
8
Calque 1
10
300.156067
20
31.035598
11
298.967698
21
28.568699
0
LINE
8
Calque 1
10
298.967698
20
28.568699
11
297.554126
21
26.241890
0
LINE
8
Calque 1
10
297.554126
20
26.241890
11
295.929536
21
24.069358
0
LINE
8
Calque 1
10
295.929536
20
24.069358
11
294.108113
21
22.065287
0
LINE
8
Calque 1
10
294.108113
20
22.065287
11
292.104042
21
20.243864
0
LINE
8
Calque 1
10
292.104042
20
20.243864
11
289.931510
21
18.619274
0
LINE
8
Calque 1
10
289.931510
20
18.619274
11
287.604701
21
17.205702
0
LINE
8
Calque 1
10
287.604701
20
17.205702
11
285.137802
21
16.017333
0
LINE
8
Calque 1
10
285.137802
20
16.017333
11
282.544996
21
15.068353
0
LINE
8
Calque 1
10
282.544996
20
15.068353
11
279.840471
21
14.372947
0
LINE
8
Calque 1
10
279.840471
20
14.372947
11
277.038410
21
13.945301
0
LINE
8
Calque 1
10
277.038410
20
13.945301
11
274.153000
21
13.799600
0
LINE
8
Calque 1
10
274.153000
20
13.799600
11
274.153000
21
13.799600
0
LINE
8
Calque 1
10
923.221000
20
15.731000
11
682.663000
21
15.731000
0
LINE
8
Calque 1
10
682.663000
20
15.731000
11
679.777590
21
15.876701
0
LINE
8
Calque 1
10
679.777590
20
15.876701
11
676.975529
21
16.304347
0
LINE
8
Calque 1
10
676.975529
20
16.304347
11
674.271004
21
16.999753
0
LINE
8
Calque 1
10
674.271004
20
16.999753
11
671.678198
21
17.948733
0
LINE
8
Calque 1
10
671.678198
20
17.948733
11
669.211299
21
19.137102
0
LINE
8
Calque 1
10
669.211299
20
19.137102
11
666.884490
21
20.550674
0
LINE
8
Calque 1
10
666.884490
20
20.550674
11
664.711958
21
22.175264
0
LINE
8
Calque 1
10
664.711958
20
22.175264
11
662.707887
21
23.996688
0
LINE
8
Calque 1
10
662.707887
20
23.996688
11
660.886464
21
26.000758
0
LINE
8
Calque 1
10
660.886464
20
26.000758
11
659.261874
21
28.173290
0
LINE
8
Calque 1
10
659.261874
20
28.173290
11
657.848302
21
30.500099
0
LINE
8
Calque 1
10
657.848302
20
30.500099
11
656.659933
21
32.966998
0
LINE
8
Calque 1
10
656.659933
20
32.966998
11
655.710953
21
35.559804
0
LINE
8
Calque 1
10
655.710953
20
35.559804
11
655.015547
21
38.264329
0
LINE
8
Calque 1
10
655.015547
20
38.264329
11
654.587901
21
41.066390
0
LINE
8
Calque 1
10
654.587901
20
41.066390
11
654.442200
21
43.951800
0
LINE
8
Calque 1
10
654.442200
20
43.951800
11
654.442200
21
197.509800
0
LINE
8
Calque 1
10
654.442200
20
197.509800
11
654.587901
21
200.395210
0
LINE
8
Calque 1
10
654.587901
20
200.395210
11
655.015547
21
203.197271
0
LINE
8
Calque 1
10
655.015547
20
203.197271
11
655.710953
21
205.901796
0
LINE
8
Calque 1
10
655.710953
20
205.901796
11
656.659933
21
208.494602
0
LINE
8
Calque 1
10
656.659933
20
208.494602
11
657.848302
21
210.961501
0
LINE
8
Calque 1
10
657.848302
20
210.961501
11
659.261874
21
213.288310
0
LINE
8
Calque 1
10
659.261874
20
213.288310
11
660.886464
21
215.460842
0
LINE
8
Calque 1
10
660.886464
20
215.460842
11
662.707887
21
217.464912
0
LINE
8
Calque 1
10
662.707887
20
217.464912
11
664.711958
21
219.286336
0
LINE
8
Calque 1
10
664.711958
20
219.286336
11
666.884490
21
220.910926
0
LINE
8
Calque 1
10
666.884490
20
220.910926
11
669.211299
21
222.324498
0
LINE
8
Calque 1
10
669.211299
20
222.324498
11
671.678198
21
223.512867
0
LINE
8
Calque 1
10
671.678198
20
223.512867
11
674.271004
21
224.461847
0
LINE
8
Calque 1
10
674.271004
20
224.461847
11
676.975529
21
225.157253
0
LINE
8
Calque 1
10
676.975529
20
225.157253
11
679.777590
21
225.584899
0
LINE
8
Calque 1
10
679.777590
20
225.584899
11
682.663000
21
225.730600
0
LINE
8
Calque 1
10
682.663000
20
225.730600
11
923.221000
21
225.730600
0
LINE
8
Calque 1
10
923.221000
20
225.730600
11
926.106428
21
225.584899
0
LINE
8
Calque 1
10
926.106428
20
225.584899
11
928.908504
21
225.157253
0
LINE
8
Calque 1
10
928.908504
20
225.157253
11
931.613043
21
224.461847
0
LINE
8
Calque 1
10
931.613043
20
224.461847
11
934.205859
21
223.512867
0
LINE
8
Calque 1
10
934.205859
20
223.512867
11
936.672769
21
222.324498
0
LINE
8
Calque 1
10
936.672769
20
222.324498
11
938.999586
21
220.910926
0
LINE
8
Calque 1
10
938.999586
20
220.910926
11
941.172124
21
219.286336
0
LINE
8
Calque 1
10
941.172124
20
219.286336
11
943.176200
21
217.464912
0
LINE
8
Calque 1
10
943.176200
20
217.464912
11
944.997627
21
215.460842
0
LINE
8
Calque 1
10
944.997627
20
215.460842
11
946.622221
21
213.288310
0
LINE
8
Calque 1
10
946.622221
20
213.288310
11
948.035795
21
210.961501
0
LINE
8
Calque 1
10
948.035795
20
210.961501
11
949.224166
21
208.494602
0
LINE
8
Calque 1
10
949.224166
20
208.494602
11
950.173147
21
205.901796
0
LINE
8
Calque 1
10
950.173147
20
205.901796
11
950.868553
21
203.197271
0
LINE
8
Calque 1
10
950.868553
20
203.197271
11
951.296199
21
200.395210
0
LINE
8
Calque 1
10
951.296199
20
200.395210
11
951.441900
21
197.509800
0
LINE
8
Calque 1
10
951.441900
20
197.509800
11
951.441900
21
43.951800
0
LINE
8
Calque 1
10
951.441900
20
43.951800
11
951.296199
21
41.066390
0
LINE
8
Calque 1
10
951.296199
20
41.066390
11
950.868553
21
38.264329
0
LINE
8
Calque 1
10
950.868553
20
38.264329
11
950.173147
21
35.559804
0
LINE
8
Calque 1
10
950.173147
20
35.559804
11
949.224166
21
32.966998
0
LINE
8
Calque 1
10
949.224166
20
32.966998
11
948.035795
21
30.500099
0
LINE
8
Calque 1
10
948.035795
20
30.500099
11
946.622221
21
28.173290
0
LINE
8
Calque 1
10
946.622221
20
28.173290
11
944.997627
21
26.000758
0
LINE
8
Calque 1
10
944.997627
20
26.000758
11
943.176200
21
23.996687
0
LINE
8
Calque 1
10
943.176200
20
23.996687
11
941.172124
21
22.175264
0
LINE
8
Calque 1
10
941.172124
20
22.175264
11
938.999586
21
20.550674
0
LINE
8
Calque 1
10
938.999586
20
20.550674
11
936.672769
21
19.137102
0
LINE
8
Calque 1
10
936.672769
20
19.137102
11
934.205859
21
17.948733
0
LINE
8
Calque 1
10
934.205859
20
17.948733
11
931.613043
21
16.999753
0
LINE
8
Calque 1
10
931.613043
20
16.999753
11
928.908504
21
16.304347
0
LINE
8
Calque 1
10
928.908504
20
16.304347
11
926.106428
21
15.876701
0
LINE
8
Calque 1
10
926.106428
20
15.876701
11
923.221000
21
15.731000
0
LINE
8
Calque 1
10
923.221000
20
15.731000
11
923.221000
21
15.731000
0
LINE
8
Layer 1
10
452.382000
20
171.784000
11
452.190820
21
151.579000
0
LINE
8
Layer 1
10
452.190820
20
151.579000
11
436.256820
21
151.715130
0
LINE
8
Layer 1
10
436.256820
20
151.715130
11
436.758120
21
204.692430
0
LINE
8
Layer 1
10
436.758120
20
204.692430
11
452.692120
21
204.556300
0
LINE
8
Layer 1
10
452.692120
20
204.556300
11
452.504870
21
184.768000
0
LINE
8
Layer 1
10
452.504870
20
184.768000
11
454.581079
21
185.002115
0
LINE
8
Layer 1
10
454.581079
20
185.002115
11
455.367535
21
185.309806
0
LINE
8
Layer 1
10
455.367535
20
185.309806
11
455.986330
21
185.745060
0
LINE
8
Layer 1
10
455.986330
20
185.745060
11
457.159601
21
187.184118
0
LINE
8
Layer 1
10
457.159601
20
187.184118
11
458.543540
21
189.507710
0
LINE
8
Layer 1
10
458.543540
20
189.507710
11
460.106710
21
192.480110
0
LINE
8
Layer 1
10
460.106710
20
192.480110
11
462.269240
21
196.975220
0
LINE
8
Layer 1
10
462.269240
20
196.975220
11
463.536470
21
199.568110
0
LINE
8
Layer 1
10
463.536470
20
199.568110
11
465.848630
21
204.443990
0
LINE
8
Layer 1
10
465.848630
20
204.443990
11
484.340830
21
204.286060
0
LINE
8
Layer 1
10
484.340830
20
204.286060
11
472.317230
21
185.084860
0
LINE
8
Layer 1
10
472.317230
20
185.084860
11
470.797195
21
182.840744
0
LINE
8
Layer 1
10
470.797195
20
182.840744
11
469.355340
21
181.082620
0
LINE
8
Layer 1
10
469.355340
20
181.082620
11
467.935676
21
179.775081
0
LINE
8
Layer 1
10
467.935676
20
179.775081
11
466.483800
21
178.885180
0
LINE
8
Layer 1
10
466.483800
20
178.885180
11
466.481800
21
178.607500
0
LINE
8
Layer 1
10
466.481800
20
178.607500
11
467.815460
21
177.597369
0
LINE
8
Layer 1
10
467.815460
20
177.597369
11
469.199460
21
176.119020
0
LINE
8
Layer 1
10
469.199460
20
176.119020
11
470.669990
21
174.153392
0
LINE
8
Layer 1
10
470.669990
20
174.153392
11
472.264060
21
171.683600
0
LINE
8
Layer 1
10
472.264060
20
171.683600
11
484.497760
21
151.303100
0
LINE
8
Layer 1
10
484.497760
20
151.303100
11
466.005560
21
151.461030
0
LINE
8
Layer 1
10
466.005560
20
151.461030
11
463.530200
21
156.377500
0
LINE
8
Layer 1
10
463.530200
20
156.377500
11
462.203380
21
159.062200
0
LINE
8
Layer 1
10
462.203380
20
159.062200
11
459.943060
21
163.525690
0
LINE
8
Layer 1
10
459.943060
20
163.525690
11
458.326620
21
166.525260
0
LINE
8
Layer 1
10
458.326620
20
166.525260
11
456.770055
21
169.098716
0
LINE
8
Layer 1
10
456.770055
20
169.098716
11
455.551710
21
170.680500
0
LINE
8
Layer 1
10
455.551710
20
170.680500
11
454.959895
21
171.156309
0
LINE
8
Layer 1
10
454.959895
20
171.156309
11
454.234381
21
171.498904
0
LINE
8
Layer 1
10
454.234381
20
171.498904
11
453.375241
21
171.708169
0
LINE
8
Layer 1
10
453.375241
20
171.708169
11
452.382550
21
171.783990
0
LINE
8
Layer 1
10
452.382550
20
171.783990
11
452.382000
21
171.784000
0
LINE
8
Layer 1
10
538.455000
20
162.545000
11
538.455000
21
150.463000
0
LINE
8
Layer 1
10
538.455000
20
150.463000
11
501.616000
21
150.463000
0
LINE
8
Layer 1
10
501.616000
20
150.463000
11
501.616000
21
203.442000
0
LINE
8
Layer 1
10
501.616000
20
203.442000
11
517.550000
21
203.442000
0
LINE
8
Layer 1
10
517.550000
20
203.442000
11
517.550000
21
162.545000
0
LINE
8
Layer 1
10
517.550000
20
162.545000
11
538.455000
21
162.545000
0
LINE
8
Layer 1
10
342.853000
20
193.128000
11
342.853000
21
162.923000
0
LINE
8
Layer 1
10
342.853000
20
162.923000
11
342.853000
21
151.536000
0
LINE
8
Layer 1
10
342.853000
20
151.536000
11
359.469000
21
151.536000
0
LINE
8
Layer 1
10
359.469000
20
151.536000
11
359.469000
21
204.515000
0
LINE
8
Layer 1
10
359.469000
20
204.515000
11
342.853000
21
204.515000
0
LINE
8
Layer 1
10
342.853000
20
204.515000
11
342.853000
21
193.128000
0
LINE
8
Layer 1
10
398.462000
20
204.527000
11
398.462000
21
170.351000
0
LINE
8
Layer 1
10
398.462000
20
170.351000
11
398.236910
21
170.351000
0
LINE
8
Layer 1
10
398.236910
20
170.351000
11
397.697155
21
167.776081
0
LINE
8
Layer 1
10
397.697155
20
167.776081
11
397.283174
21
166.783311
0
LINE
8
Layer 1
10
397.283174
20
166.783311
11
396.771540
21
165.990260
0
LINE
8
Layer 1
10
396.771540
20
165.990260
11
395.776635
21
165.108980
0
LINE
8
Layer 1
10
395.776635
20
165.108980
11
394.422539
21
164.479785
0
LINE
8
Layer 1
10
394.422539
20
164.479785
11
392.709498
21
164.102440
0
LINE
8
Layer 1
10
392.709498
20
164.102440
11
390.637760
21
163.976710
0
LINE
8
Layer 1
10
390.637760
20
163.976710
11
387.667790
21
164.167296
0
LINE
8
Layer 1
10
387.667790
20
164.167296
11
384.503990
21
164.740450
0
LINE
8
Layer 1
10
384.503990
20
164.740450
11
381.398059
21
165.625635
0
LINE
8
Layer 1
10
381.398059
20
165.625635
11
378.603160
21
166.754030
0
LINE
8
Layer 1
10
378.603160
20
166.754030
11
378.603160
21
153.075130
0
LINE
8
Layer 1
10
378.603160
20
153.075130
11
381.203654
21
152.233079
0
LINE
8
Layer 1
10
381.203654
20
152.233079
11
385.125310
21
151.512940
0
LINE
8
Layer 1
10
385.125310
20
151.512940
11
389.589237
21
151.018311
0
LINE
8
Layer 1
10
389.589237
20
151.018311
11
393.821130
21
150.853270
0
LINE
8
Layer 1
10
393.821130
20
150.853270
11
396.504457
21
150.934081
0
LINE
8
Layer 1
10
396.504457
20
150.934081
11
399.003426
21
151.176524
0
LINE
8
Layer 1
10
399.003426
20
151.176524
11
401.318039
21
151.580614
0
LINE
8
Layer 1
10
401.318039
20
151.580614
11
403.448299
21
152.146366
0
LINE
8
Layer 1
10
403.448299
20
152.146366
11
405.394206
21
152.873797
0
LINE
8
Layer 1
10
405.394206
20
152.873797
11
407.155762
21
153.762921
0
LINE
8
Layer 1
10
407.155762
20
153.762921
11
408.732970
21
154.813753
0
LINE
8
Layer 1
10
408.732970
20
154.813753
11
410.125830
21
156.026310
0
LINE
8
Layer 1
10
410.125830
20
156.026310
11
411.344855
21
157.409891
0
LINE
8
Layer 1
10
411.344855
20
157.409891
11
412.401441
21
158.974723
0
LINE
8
Layer 1
10
412.401441
20
158.974723
11
413.295560
21
160.720810
0
LINE
8
Layer 1
10
413.295560
20
160.720810
11
414.027179
21
162.648153
0
LINE
8
Layer 1
10
414.027179
20
162.648153
11
414.596269
21
164.756752
0
LINE
8
Layer 1
10
414.596269
20
164.756752
11
415.002799
21
167.046610
0
LINE
8
Layer 1
10
415.002799
20
167.046610
11
415.246740
21
169.517729
0
LINE
8
Layer 1
10
415.246740
20
169.517729
11
415.328060
21
172.170110
0
LINE
8
Layer 1
10
415.328060
20
172.170110
11
415.328060
21
204.527010
0
LINE
8
Layer 1
10
415.328060
20
204.527010
11
398.462060
21
204.527010
0
LINE
8
Layer 1
10
398.462060
20
204.527010
11
398.462000
21
204.527000
0
LINE
8
Layer 1
10
567.817000
20
166.688000
11
567.610160
21
150.313500
0
LINE
8
Layer 1
10
567.610160
20
150.313500
11
552.512760
21
150.313500
0
LINE
8
Layer 1
10
552.512760
20
150.313500
11
556.166400
21
203.478300
0
LINE
8
Layer 1
10
556.166400
20
203.478300
11
571.263800
21
203.478300
0
LINE
8
Layer 1
10
571.263800
20
203.478300
11
580.639340
21
176.164300
0
LINE
8
Layer 1
10
580.639340
20
176.164300
11
582.225000
21
171.008160
0
LINE
8
Layer 1
10
582.225000
20
171.008160
11
583.190130
21
167.175850
0
LINE
8
Layer 1
10
583.190130
20
167.175850
11
583.465860
21
167.175850
0
LINE
8
Layer 1
10
583.465860
20
167.175850
11
584.327670
21
171.042980
0
LINE
8
Layer 1
10
584.327670
20
171.042980
11
585.947520
21
176.233940
0
LINE
8
Layer 1
10
585.947520
20
176.233940
11
595.185060
21
203.478340
0
LINE
8
Layer 1
10
595.185060
20
203.478340
11
610.213860
21
203.478340
0
LINE
8
Layer 1
10
610.213860
20
203.478340
11
614.005500
21
150.313540
0
LINE
8
Layer 1
10
614.005500
20
150.313540
11
598.839000
21
150.313540
0
LINE
8
Layer 1
10
598.839000
20
150.313540
11
598.494170
21
166.688040
0
LINE
8
Layer 1
10
598.494170
20
166.688040
11
598.494170
21
173.203020
0
LINE
8
Layer 1
10
598.494170
20
173.203020
11
598.770130
21
179.369440
0
LINE
8
Layer 1
10
598.770130
20
179.369440
11
598.425310
21
179.369440
0
LINE
8
Layer 1
10
598.425310
20
179.369440
11
597.046490
21
173.133200
0
LINE
8
Layer 1
10
597.046490
20
173.133200
11
595.116220
21
166.478970
0
LINE
8
Layer 1
10
595.116220
20
166.478970
11
589.876910
21
150.313470
0
LINE
8
Layer 1
10
589.876910
20
150.313470
11
576.572010
21
150.313470
0
LINE
8
Layer 1
10
576.572010
20
150.313470
11
571.125830
21
166.548570
0
LINE
8
Layer 1
10
571.125830
20
166.548570
11
569.195590
21
173.098320
0
LINE
8
Layer 1
10
569.195590
20
173.098320
11
568.454305
21
176.268259
0
LINE
8
Layer 1
10
568.454305
20
176.268259
11
567.885880
21
179.369400
0
LINE
8
Layer 1
10
567.885880
20
179.369400
11
567.541300
21
179.369400
0
LINE
8
Layer 1
10
567.541300
20
179.369400
11
567.817010
21
173.133160
0
LINE
8
Layer 1
10
567.817010
20
173.133160
11
567.817010
21
166.688000
0
LINE
8
Layer 1
10
567.817010
20
166.688000
11
567.817000
21
166.688000
0
LINE
8
Calque 1
10
360.333000
20
75.261100
11
360.333000
21
53.530300
0
LINE
8
Calque 1
10
360.333000
20
53.530300
11
344.971700
21
53.530300
0
LINE
8
Calque 1
10
344.971700
20
53.530300
11
344.971700
21
109.735800
0
LINE
8
Calque 1
10
344.971700
20
109.735800
11
359.742200
21
109.735800
0
LINE
8
Calque 1
10
359.742200
20
109.735800
11
372.962300
21
88.299600
0
LINE
8
Calque 1
10
372.962300
20
88.299600
11
375.657850
21
83.732410
0
LINE
8
Calque 1
10
375.657850
20
83.732410
11
377.836990
21
79.239060
0
LINE
8
Calque 1
10
377.836990
20
79.239060
11
378.132080
21
79.312760
0
LINE
8
Calque 1
10
378.132080
20
79.312760
11
377.873870
21
83.806060
0
LINE
8
Calque 1
10
377.873870
20
83.806060
11
377.762640
21
88.226100
0
LINE
8
Calque 1
10
377.762640
20
88.226100
11
377.762640
21
109.735900
0
LINE
8
Calque 1
10
377.762640
20
109.735900
11
393.124440
21
109.735900
0
LINE
8
Calque 1
10
393.124440
20
109.735900
11
393.124440
21
53.530400
0
LINE
8
Calque 1
10
393.124440
20
53.530400
11
378.353940
21
53.530400
0
LINE
8
Calque 1
10
378.353940
20
53.530400
11
365.133840
21
75.187600
0
LINE
8
Calque 1
10
365.133840
20
75.187600
11
362.475170
21
79.828430
0
LINE
8
Calque 1
10
362.475170
20
79.828430
11
360.185360
21
84.248160
0
LINE
8
Calque 1
10
360.185360
20
84.248160
11
359.890280
21
84.174760
0
LINE
8
Calque 1
10
359.890280
20
84.174760
11
360.222270
21
79.717940
0
LINE
8
Calque 1
10
360.222270
20
79.717940
11
360.332940
21
75.261400
0
LINE
8
Calque 1
10
360.332940
20
75.261400
11
360.333000
21
75.261100
0
LINE
8
Calque 1
10
599.694000
20
12.924800
11
359.136000
21
12.924800
0
LINE
8
Calque 1
10
359.136000
20
12.924800
11
356.250590
21
13.070501
0
LINE
8
Calque 1
10
356.250590
20
13.070501
11
353.448529
21
13.498147
0
LINE
8
Calque 1
10
353.448529
20
13.498147
11
350.744004
21
14.193553
0
LINE
8
Calque 1
10
350.744004
20
14.193553
11
348.151198
21
15.142533
0
LINE
8
Calque 1
10
348.151198
20
15.142533
11
345.684299
21
16.330902
0
LINE
8
Calque 1
10
345.684299
20
16.330902
11
343.357490
21
17.744474
0
LINE
8
Calque 1
10
343.357490
20
17.744474
11
341.184958
21
19.369064
0
LINE
8
Calque 1
10
341.184958
20
19.369064
11
339.180887
21
21.190487
0
LINE
8
Calque 1
10
339.180887
20
21.190487
11
337.359464
21
23.194558
0
LINE
8
Calque 1
10
337.359464
20
23.194558
11
335.734874
21
25.367090
0
LINE
8
Calque 1
10
335.734874
20
25.367090
11
334.321302
21
27.693899
0
LINE
8
Calque 1
10
334.321302
20
27.693899
11
333.132933
21
30.160798
0
LINE
8
Calque 1
10
333.132933
20
30.160798
11
332.183953
21
32.753604
0
LINE
8
Calque 1
10
332.183953
20
32.753604
11
331.488547
21
35.458129
0
LINE
8
Calque 1
10
331.488547
20
35.458129
11
331.060901
21
38.260190
0
LINE
8
Calque 1
10
331.060901
20
38.260190
11
330.915200
21
41.145600
0
LINE
8
Calque 1
10
330.915200
20
41.145600
11
330.915200
21
194.703600
0
LINE
8
Calque 1
10
330.915200
20
194.703600
11
331.060901
21
197.589010
0
LINE
8
Calque 1
10
331.060901
20
197.589010
11
331.488547
21
200.391071
0
LINE
8
Calque 1
10
331.488547
20
200.391071
11
332.183953
21
203.095596
0
LINE
8
Calque 1
10
332.183953
20
203.095596
11
333.132933
21
205.688402
0
LINE
8
Calque 1
10
333.132933
20
205.688402
11
334.321302
21
208.155301
0
LINE
8
Calque 1
10
334.321302
20
208.155301
11
335.734874
21
210.482110
0
LINE
8
Calque 1
10
335.734874
20
210.482110
11
337.359464
21
212.654642
0
LINE
8
Calque 1
10
337.359464
20
212.654642
11
339.180887
21
214.658712
0
LINE
8
Calque 1
10
339.180887
20
214.658712
11
341.184958
21
216.480136
0
LINE
8
Calque 1
10
341.184958
20
216.480136
11
343.357490
21
218.104726
0
LINE
8
Calque 1
10
343.357490
20
218.104726
11
345.684299
21
219.518298
0
LINE
8
Calque 1
10
345.684299
20
219.518298
11
348.151198
21
220.706667
0
LINE
8
Calque 1
10
348.151198
20
220.706667
11
350.744004
21
221.655647
0
LINE
8
Calque 1
10
350.744004
20
221.655647
11
353.448529
21
222.351053
0
LINE
8
Calque 1
10
353.448529
20
222.351053
11
356.250590
21
222.778699
0
LINE
8
Calque 1
10
356.250590
20
222.778699
11
359.136000
21
222.924400
0
LINE
8
Calque 1
10
359.136000
20
222.924400
11
599.694000
21
222.924400
0
LINE
8
Calque 1
10
599.694000
20
222.924400
11
602.579428
21
222.778699
0
LINE
8
Calque 1
10
602.579428
20
222.778699
11
605.381504
21
222.351053
0
LINE
8
Calque 1
10
605.381504
20
222.351053
11
608.086043
21
221.655647
0
LINE
8
Calque 1
10
608.086043
20
221.655647
11
610.678859
21
220.706667
0
LINE
8
Calque 1
10
610.678859
20
220.706667
11
613.145769
21
219.518298
0
LINE
8
Calque 1
10
613.145769
20
219.518298
11
615.472586
21
218.104726
0
LINE
8
Calque 1
10
615.472586
20
218.104726
11
617.645124
21
216.480136
0
LINE
8
Calque 1
10
617.645124
20
216.480136
11
619.649200
21
214.658712
0
LINE
8
Calque 1
10
619.649200
20
214.658712
11
621.470627
21
212.654642
0
LINE
8
Calque 1
10
621.470627
20
212.654642
11
623.095221
21
210.482110
0
LINE
8
Calque 1
10
623.095221
20
210.482110
11
624.508795
21
208.155301
0
LINE
8
Calque 1
10
624.508795
20
208.155301
11
625.697166
21
205.688402
0
LINE
8
Calque 1
10
625.697166
20
205.688402
11
626.646147
21
203.095596
0
LINE
8
Calque 1
10
626.646147
20
203.095596
11
627.341553
21
200.391071
0
LINE
8
Calque 1
10
627.341553
20
200.391071
11
627.769199
21
197.589010
0
LINE
8
Calque 1
10
627.769199
20
197.589010
11
627.914900
21
194.703600
0
LINE
8
Calque 1
10
627.914900
20
194.703600
11
627.914900
21
41.145600
0
LINE
8
Calque 1
10
627.914900
20
41.145600
11
627.769199
21
38.260190
0
LINE
8
Calque 1
10
627.769199
20
38.260190
11
627.341553
21
35.458129
0
LINE
8
Calque 1
10
627.341553
20
35.458129
11
626.646147
21
32.753604
0
LINE
8
Calque 1
10
626.646147
20
32.753604
11
625.697166
21
30.160798
0
LINE
8
Calque 1
10
625.697166
20
30.160798
11
624.508795
21
27.693899
0
LINE
8
Calque 1
10
624.508795
20
27.693899
11
623.095221
21
25.367090
0
LINE
8
Calque 1
10
623.095221
20
25.367090
11
621.470627
21
23.194558
0
LINE
8
Calque 1
10
621.470627
20
23.194558
11
619.649200
21
21.190487
0
LINE
8
Calque 1
10
619.649200
20
21.190487
11
617.645124
21
19.369064
0
LINE
8
Calque 1
10
617.645124
20
19.369064
11
615.472586
21
17.744474
0
LINE
8
Calque 1
10
615.472586
20
17.744474
11
613.145769
21
16.330902
0
LINE
8
Calque 1
10
613.145769
20
16.330902
11
610.678859
21
15.142533
0
LINE
8
Calque 1
10
610.678859
20
15.142533
11
608.086043
21
14.193553
0
LINE
8
Calque 1
10
608.086043
20
14.193553
11
605.381504
21
13.498147
0
LINE
8
Calque 1
10
605.381504
20
13.498147
11
602.579428
21
13.070501
0
LINE
8
Calque 1
10
602.579428
20
13.070501
11
599.694000
21
12.924800
0
LINE
8
Calque 1
10
599.694000
20
12.924800
11
599.694000
21
12.924800
0
LINE
8
Calque 1
10
927.438000
20
30.632700
11
927.438000
21
30.632700
0
LINE
8
Calque 1
10
927.438000
20
30.632700
11
924.856619
21
30.849397
0
LINE
8
Calque 1
10
924.856619
20
30.849397
11
922.452313
21
31.470896
0
LINE
8
Calque 1
10
922.452313
20
31.470896
11
920.276588
21
32.454304
0
LINE
8
Calque 1
10
920.276588
20
32.454304
11
918.380950
21
33.756730
0
LINE
8
Calque 1
10
918.380950
20
33.756730
11
916.816906
21
35.335284
0
LINE
8
Calque 1
10
916.816906
20
35.335284
11
915.635963
21
37.147074
0
LINE
8
Calque 1
10
915.635963
20
37.147074
11
914.889625
21
39.149210
0
LINE
8
Calque 1
10
914.889625
20
39.149210
11
914.629400
21
41.298800
0
LINE
8
Calque 1
10
914.629400
20
41.298800
11
914.629400
21
132.147800
0
LINE
8
Calque 1
10
914.629400
20
132.147800
11
914.889625
21
134.297387
0
LINE
8
Calque 1
10
914.889625
20
134.297387
11
915.635963
21
136.299521
0
LINE
8
Calque 1
10
915.635963
20
136.299521
11
916.816906
21
138.111312
0
LINE
8
Calque 1
10
916.816906
20
138.111312
11
918.380950
21
139.689866
0
LINE
8
Calque 1
10
918.380950
20
139.689866
11
920.276588
21
140.992294
0
LINE
8
Calque 1
10
920.276588
20
140.992294
11
922.452313
21
141.975703
0
LINE
8
Calque 1
10
922.452313
20
141.975703
11
924.856619
21
142.597202
0
LINE
8
Calque 1
10
924.856619
20
142.597202
11
927.438000
21
142.813900
0
LINE
8
Calque 1
10
927.438000
20
142.813900
11
927.438000
21
142.813900
0
LINE
8
Calque 1
10
927.438000
20
142.813900
11
930.019414
21
142.597203
0
LINE
8
Calque 1
10
930.019414
20
142.597203
11
932.423745
21
141.975707
0
LINE
8
Calque 1
10
932.423745
20
141.975707
11
934.599488
21
140.992302
0
LINE
8
Calque 1
10
934.599488
20
140.992302
11
936.495138
21
139.689878
0
LINE
8
Calque 1
10
936.495138
20
139.689878
11
938.059188
21
138.111325
0
LINE
8
Calque 1
10
938.059188
20
138.111325
11
939.240136
21
136.299534
0
LINE
8
Calque 1
10
939.240136
20
136.299534
11
939.986475
21
134.297396
0
LINE
8
Calque 1
10
939.986475
20
134.297396
11
940.246700
21
132.147800
0
LINE
8
Calque 1
10
940.246700
20
132.147800
11
940.246700
21
41.298800
0
LINE
8
Calque 1
10
940.246700
20
41.298800
11
939.986475
21
39.149213
0
LINE
8
Calque 1
10
939.986475
20
39.149213
11
939.240136
21
37.147079
0
LINE
8
Calque 1
10
939.240136
20
37.147079
11
938.059188
21
35.335288
0
LINE
8
Calque 1
10
938.059188
20
35.335288
11
936.495138
21
33.756734
0
LINE
8
Calque 1
10
936.495138
20
33.756734
11
934.599488
21
32.454306
0
LINE
8
Calque 1
10
934.599488
20
32.454306
11
932.423745
21
31.470897
0
LINE
8
Calque 1
10
932.423745
20
31.470897
11
930.019414
21
30.849398
0
LINE
8
Calque 1
10
930.019414
20
30.849398
11
927.438000
21
30.632700
0
LINE
8
Calque 1
10
927.438000
20
30.632700
11
927.438000
21
30.632700
0
LINE
8
Calque 1
10
789.086000
20
160.831000
11
788.990024
21
158.948269
0
LINE
8
Calque 1
10
788.990024
20
158.948269
11
788.702098
21
157.182817
0
LINE
8
Calque 1
10
788.702098
20
157.182817
11
788.222225
21
155.534655
0
LINE
8
Calque 1
10
788.222225
20
155.534655
11
787.550409
21
154.003790
0
LINE
8
Calque 1
10
787.550409
20
154.003790
11
786.686652
21
152.590233
0
LINE
8
Calque 1
10
786.686652
20
152.590233
11
785.630958
21
151.293993
0
LINE
8
Calque 1
10
785.630958
20
151.293993
11
784.383329
21
150.115078
0
LINE
8
Calque 1
10
784.383329
20
150.115078
11
782.943770
21
149.053500
0
LINE
8
Calque 1
10
782.943770
20
149.053500
11
781.318070
21
148.113030
0
LINE
8
Calque 1
10
781.318070
20
148.113030
11
779.512236
21
147.298065
0
LINE
8
Calque 1
10
779.512236
20
147.298065
11
777.526294
21
146.608572
0
LINE
8
Calque 1
10
777.526294
20
146.608572
11
775.360270
21
146.044516
0
LINE
8
Calque 1
10
775.360270
20
146.044516
11
773.014190
21
145.605865
0
LINE
8
Calque 1
10
773.014190
20
145.605865
11
770.488079
21
145.292584
0
LINE
8
Calque 1
10
770.488079
20
145.292584
11
764.895870
21
145.042000
0
LINE
8
Calque 1
10
764.895870
20
145.042000
11
760.289212
21
145.187484
0
LINE
8
Calque 1
10
760.289212
20
145.187484
11
756.023850
21
145.624200
0
LINE
8
Calque 1
10
756.023850
20
145.624200
11
751.928832
21
146.368221
0
LINE
8
Calque 1
10
751.928832
20
146.368221
11
747.833830
21
147.436040
0
LINE
8
Calque 1
10
747.833830
20
147.436040
11
747.833830
21
159.472040
0
LINE
8
Calque 1
10
747.833830
20
159.472040
11
751.738685
21
157.870199
0
LINE
8
Calque 1
10
751.738685
20
157.870199
11
756.023850
21
156.689130
0
LINE
8
Calque 1
10
756.023850
20
156.689130
11
760.535365
21
155.961289
0
LINE
8
Calque 1
10
760.535365
20
155.961289
11
765.123410
21
155.718600
0
LINE
8
Calque 1
10
765.123410
20
155.718600
11
768.308284
21
155.961289
0
LINE
8
Calque 1
10
768.308284
20
155.961289
11
769.559537
21
156.264586
0
LINE
8
Calque 1
10
769.559537
20
156.264586
11
770.583340
21
156.689130
0
LINE
8
Calque 1
10
770.583340
20
156.689130
11
771.379492
21
157.235267
0
LINE
8
Calque 1
10
771.379492
20
157.235267
11
771.948235
21
157.902650
0
LINE
8
Calque 1
10
771.948235
20
157.902650
11
772.289518
21
158.691315
0
LINE
8
Calque 1
10
772.289518
20
158.691315
11
772.403290
21
159.601300
0
LINE
8
Calque 1
10
772.403290
20
159.601300
11
772.310865
21
160.266567
0
LINE
8
Calque 1
10
772.310865
20
160.266567
11
772.033590
21
160.903510
0
LINE
8
Calque 1
10
772.033590
20
160.903510
11
771.571462
21
161.512231
0
LINE
8
Calque 1
10
771.571462
20
161.512231
11
770.924480
21
162.092830
0
LINE
8
Calque 1
10
770.924480
20
162.092830
11
768.507384
21
163.394439
0
LINE
8
Calque 1
10
768.507384
20
163.394439
11
764.213570
21
165.036840
0
LINE
8
Calque 1
10
764.213570
20
165.036840
11
759.862730
21
166.694621
0
LINE
8
Calque 1
10
759.862730
20
166.694621
11
756.820070
21
168.045960
0
LINE
8
Calque 1
10
756.820070
20
168.045960
11
754.592195
21
169.299197
0
LINE
8
Calque 1
10
754.592195
20
169.299197
11
752.687180
21
170.666780
0
LINE
8
Calque 1
10
752.687180
20
170.666780
11
751.549299
21
171.703566
0
LINE
8
Calque 1
10
751.549299
20
171.703566
11
750.563334
21
172.809537
0
LINE
8
Calque 1
10
750.563334
20
172.809537
11
749.729309
21
173.984610
0
LINE
8
Calque 1
10
749.729309
20
173.984610
11
749.047250
21
175.228700
0
LINE
8
Calque 1
10
749.047250
20
175.228700
11
748.516251
21
176.544778
0
LINE
8
Calque 1
10
748.516251
20
176.544778
11
748.137071
21
177.937961
0
LINE
8
Calque 1
10
748.137071
20
177.937961
11
747.909626
21
179.408119
0
LINE
8
Calque 1
10
747.909626
20
179.408119
11
747.833830
21
180.955120
0
LINE
8
Calque 1
10
747.833830
20
180.955120
11
747.927423
21
182.653824
0
LINE
8
Calque 1
10
747.927423
20
182.653824
11
748.208210
21
184.255442
0
LINE
8
Calque 1
10
748.208210
20
184.255442
11
748.676200
21
185.759978
0
LINE
8
Calque 1
10
748.676200
20
185.759978
11
749.331405
21
187.167439
0
LINE
8
Calque 1
10
749.331405
20
187.167439
11
750.173834
21
188.477828
0
LINE
8
Calque 1
10
750.173834
20
188.477828
11
751.203497
21
189.691151
0
LINE
8
Calque 1
10
751.203497
20
189.691151
11
752.420406
21
190.807414
0
LINE
8
Calque 1
10
752.420406
20
190.807414
11
753.824570
21
191.826620
0
LINE
8
Calque 1
10
753.824570
20
191.826620
11
755.396625
21
192.736479
0
LINE
8
Calque 1
10
755.396625
20
192.736479
11
757.118069
21
193.525039
0
LINE
8
Calque 1
10
757.118069
20
193.525039
11
758.988894
21
194.192295
0
LINE
8
Calque 1
10
758.988894
20
194.192295
11
761.009089
21
194.738242
0
LINE
8
Calque 1
10
761.009089
20
194.738242
11
765.497549
21
195.466192
0
LINE
8
Calque 1
10
765.497549
20
195.466192
11
770.583370
21
195.708850
0
LINE
8
Calque 1
10
770.583370
20
195.708850
11
774.943071
21
195.522725
0
LINE
8
Calque 1
10
774.943071
20
195.522725
11
779.228140
21
194.965050
0
LINE
8
Calque 1
10
779.228140
20
194.965050
11
783.189816
21
194.067009
0
LINE
8
Calque 1
10
783.189816
20
194.067009
11
786.583780
21
192.861820
0
LINE
8
Calque 1
10
786.583780
20
192.861820
11
786.583780
21
180.178920
0
LINE
8
Calque 1
10
786.583780
20
180.178920
11
785.014850
21
181.191937
0
LINE
8
Calque 1
10
785.014850
20
181.191937
11
783.265810
21
182.095740
0
LINE
8
Calque 1
10
783.265810
20
182.095740
11
781.336845
21
182.890373
0
LINE
8
Calque 1
10
781.336845
20
182.890373
11
779.228140
21
183.575880
0
LINE
8
Calque 1
10
779.228140
20
183.575880
11
777.023959
21
184.127978
0
LINE
8
Calque 1
10
777.023959
20
184.127978
11
774.810527
21
184.522327
0
LINE
8
Calque 1
10
774.810527
20
184.522327
11
772.587822
21
184.758933
0
LINE
8
Calque 1
10
772.587822
20
184.758933
11
770.355820
21
184.837800
0
LINE
8
Calque 1
10
770.355820
20
184.837800
11
767.587861
21
184.651602
0
LINE
8
Calque 1
10
767.587861
20
184.651602
11
765.654270
21
184.093480
0
LINE
8
Calque 1
10
765.654270
20
184.093480
11
764.990389
21
183.670777
0
LINE
8
Calque 1
10
764.990389
20
183.670777
11
764.516452
21
183.147146
0
LINE
8
Calque 1
10
764.516452
20
183.147146
11
764.232247
21
182.522402
0
LINE
8
Calque 1
10
764.232247
20
182.522402
11
764.137560
21
181.796360
0
LINE
8
Calque 1
10
764.137560
20
181.796360
11
764.239355
21
181.066147
0
LINE
8
Calque 1
10
764.239355
20
181.066147
11
764.544897
21
180.364516
0
LINE
8
Calque 1
10
764.544897
20
180.364516
11
765.054421
21
179.691290
0
LINE
8
Calque 1
10
765.054421
20
179.691290
11
765.768160
21
179.046290
0
LINE
8
Calque 1
10
765.768160
20
179.046290
11
766.831874
21
178.364765
0
LINE
8
Calque 1
10
766.831874
20
178.364765
11
768.393326
21
177.582180
0
LINE
8
Calque 1
10
768.393326
20
177.582180
11
773.009900
21
175.713970
0
LINE
8
Calque 1
10
773.009900
20
175.713970
11
777.170815
21
174.120096
0
LINE
8
Calque 1
10
777.170815
20
174.120096
11
780.100110
21
172.834150
0
LINE
8
Calque 1
10
780.100110
20
172.834150
11
782.251566
21
171.677280
0
LINE
8
Calque 1
10
782.251566
20
171.677280
11
784.081220
21
170.472320
0
LINE
8
Calque 1
10
784.081220
20
170.472320
11
786.270787
21
168.417628
0
LINE
8
Calque 1
10
786.270787
20
168.417628
11
787.130994
21
167.305518
0
LINE
8
Calque 1
10
787.130994
20
167.305518
11
787.834780
21
166.137140
0
LINE
8
Calque 1
10
787.834780
20
166.137140
11
788.382178
21
164.907406
0
LINE
8
Calque 1
10
788.382178
20
164.907406
11
788.773207
21
163.613180
0
LINE
8
Calque 1
10
788.773207
20
163.613180
11
789.007843
21
162.254371
0
LINE
8
Calque 1
10
789.007843
20
162.254371
11
789.086060
21
160.830890
0
LINE
8
Calque 1
10
789.086060
20
160.830890
11
789.086000
21
160.831000
0
LINE
8
Calque 1
10
837.138000
20
183.162000
11
837.138000
21
145.029000
0
LINE
8
Calque 1
10
837.138000
20
145.029000
11
822.306000
21
145.029000
0
LINE
8
Calque 1
10
822.306000
20
145.029000
11
822.306000
21
183.162000
0
LINE
8
Calque 1
10
822.306000
20
183.162000
11
808.846000
21
183.162000
0
LINE
8
Calque 1
10
808.846000
20
183.162000
11
808.846000
21
194.427000
0
LINE
8
Calque 1
10
808.846000
20
194.427000
11
850.598000
21
194.427000
0
LINE
8
Calque 1
10
850.598000
20
194.427000
11
850.598000
21
183.162000
0
LINE
8
Calque 1
10
850.598000
20
183.162000
11
837.138000
21
183.162000
0
LINE
8
Calque 1
10
905.972000
20
169.682000
11
905.899048
21
166.258326
0
LINE
8
Calque 1
10
905.899048
20
166.258326
11
905.680189
21
163.111183
0
LINE
8
Calque 1
10
905.680189
20
163.111183
11
905.315420
21
160.240576
0
LINE
8
Calque 1
10
905.315420
20
160.240576
11
904.804737
21
157.646512
0
LINE
8
Calque 1
10
904.804737
20
157.646512
11
904.148138
21
155.328997
0
LINE
8
Calque 1
10
904.148138
20
155.328997
11
903.345617
21
153.288036
0
LINE
8
Calque 1
10
903.345617
20
153.288036
11
902.397172
21
151.523635
0
LINE
8
Calque 1
10
902.397172
20
151.523635
11
901.302800
21
150.035800
0
LINE
8
Calque 1
10
901.302800
20
150.035800
11
900.030801
21
148.770315
0
LINE
8
Calque 1
10
900.030801
20
148.770315
11
898.549331
21
147.673630
0
LINE
8
Calque 1
10
898.549331
20
147.673630
11
896.858396
21
146.745723
0
LINE
8
Calque 1
10
896.858396
20
146.745723
11
894.958000
21
145.986574
0
LINE
8
Calque 1
10
894.958000
20
145.986574
11
892.848148
21
145.396161
0
LINE
8
Calque 1
10
892.848148
20
145.396161
11
890.528844
21
144.974463
0
LINE
8
Calque 1
10
890.528844
20
144.974463
11
888.000093
21
144.721460
0
LINE
8
Calque 1
10
888.000093
20
144.721460
11
885.261900
21
144.637130
0
LINE
8
Calque 1
10
885.261900
20
144.637130
11
882.523576
21
144.722954
0
LINE
8
Calque 1
10
882.523576
20
144.722954
11
879.994791
21
144.980442
0
LINE
8
Calque 1
10
879.994791
20
144.980442
11
877.675522
21
145.409616
0
LINE
8
Calque 1
10
877.675522
20
145.409616
11
875.565750
21
146.010497
0
LINE
8
Calque 1
10
875.565750
20
146.010497
11
873.665453
21
146.783109
0
LINE
8
Calque 1
10
873.665453
20
146.783109
11
871.974609
21
147.727474
0
LINE
8
Calque 1
10
871.974609
20
147.727474
11
870.493199
21
148.843613
0
LINE
8
Calque 1
10
870.493199
20
148.843613
11
869.221200
21
150.131550
0
LINE
8
Calque 1
10
869.221200
20
150.131550
11
868.126894
21
151.638818
0
LINE
8
Calque 1
10
868.126894
20
151.638818
11
867.178498
21
153.413682
0
LINE
8
Calque 1
10
867.178498
20
153.413682
11
866.376013
21
155.456135
0
LINE
8
Calque 1
10
866.376013
20
155.456135
11
865.719437
21
157.766167
0
LINE
8
Calque 1
10
865.719437
20
157.766167
11
865.208769
21
160.343773
0
LINE
8
Calque 1
10
865.208769
20
160.343773
11
864.844008
21
163.188944
0
LINE
8
Calque 1
10
864.844008
20
163.188944
11
864.625152
21
166.301672
0
LINE
8
Calque 1
10
864.625152
20
166.301672
11
864.552200
21
169.681950
0
LINE
8
Calque 1
10
864.552200
20
169.681950
11
864.552200
21
194.024250
0
LINE
8
Calque 1
10
864.552200
20
194.024250
11
878.401100
21
194.024250
0
LINE
8
Calque 1
10
878.401100
20
194.024250
11
878.401100
21
168.723750
0
LINE
8
Calque 1
10
878.401100
20
168.723750
11
878.591400
21
163.484630
0
LINE
8
Calque 1
10
878.591400
20
163.484630
11
879.163700
21
160.673600
0
LINE
8
Calque 1
10
879.163700
20
160.673600
11
879.564458
21
159.687206
0
LINE
8
Calque 1
10
879.564458
20
159.687206
11
880.068612
21
158.836459
0
LINE
8
Calque 1
10
880.068612
20
158.836459
11
880.676136
21
158.121632
0
LINE
8
Calque 1
10
880.676136
20
158.121632
11
881.387000
21
157.543000
0
LINE
8
Calque 1
10
881.387000
20
157.543000
11
882.204697
21
157.095499
0
LINE
8
Calque 1
10
882.204697
20
157.095499
11
883.133600
21
156.775956
0
LINE
8
Calque 1
10
883.133600
20
156.775956
11
885.325700
21
156.520420
0
LINE
8
Calque 1
10
885.325700
20
156.520420
11
887.461325
21
156.775956
0
LINE
8
Calque 1
10
887.461325
20
156.775956
11
888.368713
21
157.095499
0
LINE
8
Calque 1
10
888.368713
20
157.095499
11
889.169000
21
157.543000
0
LINE
8
Calque 1
10
889.169000
20
157.543000
11
889.865505
21
158.121632
0
LINE
8
Calque 1
10
889.865505
20
158.121632
11
890.462888
21
158.836459
0
LINE
8
Calque 1
10
890.462888
20
158.836459
11
891.360700
21
160.673600
0
LINE
8
Calque 1
10
891.360700
20
160.673600
11
891.733587
21
161.990959
0
LINE
8
Calque 1
10
891.733587
20
161.990959
11
891.964500
21
163.516570
0
LINE
8
Calque 1
10
891.964500
20
163.516570
11
892.123500
21
168.723750
0
LINE
8
Calque 1
10
892.123500
20
168.723750
11
892.123500
21
194.024250
0
LINE
8
Calque 1
10
892.123500
20
194.024250
11
905.972500
21
194.024250
0
LINE
8
Calque 1
10
905.972500
20
194.024250
11
905.972500
21
169.681950
0
LINE
8
Calque 1
10
905.972500
20
169.681950
11
905.972000
21
169.682000
 0 
ENDSEC
 0 
EOF