  0
SECTION
  2
HEADER
  9
$ACADVER
  1
AC1014
  9
$HANDSEED
  5
FFFF
  9
$MEASUREMENT
 70
     1
  0
ENDSEC
  0
SECTION
  2
TABLES
  0
TABLE
  2
VPORT
  5
8
330
0
100
AcDbSymbolTable
 70
     4
  0
VPORT
  5
2E
330
8
100
AcDbSymbolTableRecord
100
AcDbViewportTableRecord
  2
*ACTIVE
 70
     0
 10
0.0
 20
0.0
 11
1.0
 21
1.0
 12
210.0
 22
148.5
 13
0.0
 23
0.0
 14
10.0
 24
10.0
 15
10.0
 25
10.0
 16
0.0
 26
0.0
 36
1.0
 17
0.0
 27
0.0
 37
0.0
 40
341.0
 41
1.24
 42
50.0
 43
0.0
 44
0.0
 50
0.0
 51
0.0
 71
     0
 72
   100
 73
     1
 74
     3
 75
     0
 76
     0
 77
     0
 78
     0
  0
ENDTAB
  0
TABLE
  2
LTYPE
  5
5
330
0
100
AcDbSymbolTable
 70
     1
  0
LTYPE
  5
14
330
5
100
AcDbSymbolTableRecord
100
AcDbLinetypeTableRecord
  2
BYBLOCK
 70
     0
  3

 72
    65
 73
     0
 40
0.0
  0
LTYPE
  5
15
330
5
100
AcDbSymbolTableRecord
100
AcDbLinetypeTableRecord
  2
BYLAYER
 70
     0
  3

 72
    65
 73
     0
 40
0.0
  0
LTYPE
  5
16
330
5
100
AcDbSymbolTableRecord
100
AcDbLinetypeTableRecord
  2
CONTINUOUS
 70
     0
  3
Solid line
 72
    65
 73
     0
 40
0.0
  0
ENDTAB
  0
TABLE
  2
LAYER
  5
2
100
AcDbSymbolTable
 70
2
  0
LAYER
  5
50
100
AcDbSymbolTableRecord
100
AcDbLayerTableRecord
  2
0
 70
0
  6
CONTINUOUS
  0
LAYER
  5
51
100
AcDbSymbolTableRecord
100
AcDbLayerTableRecord
  2
Calque_1
 70
0
  6
CONTINUOUS
  0
ENDTAB
  0
TABLE
  2
STYLE
  5
3
330
0
100
AcDbSymbolTable
 70
     1
  0
STYLE
  5
11
330
3
100
AcDbSymbolTableRecord
100
AcDbTextStyleTableRecord
  2
STANDARD
 70
     0
 40
0.0
 41
1.0
 50
0.0
 71
     0
 42
2.5
  3
txt
  4

  0
ENDTAB
  0
TABLE
  2
VIEW
  5
6
330
0
100
AcDbSymbolTable
 70
     0
  0
ENDTAB
  0
TABLE
  2
UCS
  5
7
330
0
100
AcDbSymbolTable
 70
     0
  0
ENDTAB
  0
TABLE
  2
APPID
  5
9
330
0
100
AcDbSymbolTable
 70
     2
  0
APPID
  5
12
330
9
100
AcDbSymbolTableRecord
100
AcDbRegAppTableRecord
  2
ACAD
 70
     0
  0
ENDTAB
  0
TABLE
  2
DIMSTYLE
  5
A
330
0
100
AcDbSymbolTable
 70
     1
  0
DIMSTYLE
105
27
330
A
100
AcDbSymbolTableRecord
100
AcDbDimStyleTableRecord
  2
ISO-25
 70
     0
  3

  4

  5

  6

  7

 40
1.0
 41
2.5
 42
0.625
 43
3.75
 44
1.25
 45
0.0
 46
0.0
 47
0.0
 48
0.0
140
2.5
141
2.5
142
0.0
143
0.03937007874016
144
1.0
145
0.0
146
1.0
147
0.625
 71
     0
 72
     0
 73
     0
 74
     0
 75
     0
 76
     0
 77
     1
 78
     8
170
     0
171
     3
172
     1
173
     0
174
     0
175
     0
176
     0
177
     0
178
     0
270
     2
271
     2
272
     2
273
     2
274
     3
340
11
275
     0
280
     0
281
     0
282
     0
283
     0
284
     8
285
     0
286
     0
287
     3
288
     0
  0
ENDTAB
  0
TABLE
  2
BLOCK_RECORD
  5
1
330
0
100
AcDbSymbolTable
 70
     1
  0
BLOCK_RECORD
  5
1F
330
1
100
AcDbSymbolTableRecord
100
AcDbBlockTableRecord
  2
*MODEL_SPACE
  0
BLOCK_RECORD
  5
1B
330
1
100
AcDbSymbolTableRecord
100
AcDbBlockTableRecord
  2
*PAPER_SPACE
  0
ENDTAB
  0
ENDSEC
  0
SECTION
  2
BLOCKS
  0
BLOCK
  5
20
330
1F
100
AcDbEntity
  8
0
100
AcDbBlockBegin
  2
*MODEL_SPACE
 70
     0
 10
0.0
 20
0.0
 30
0.0
  3
*MODEL_SPACE
  1

  0
ENDBLK
  5
21
330
1F
100
AcDbEntity
  8
0
100
AcDbBlockEnd
  0
BLOCK
  5
1C
330
1B
100
AcDbEntity
 67
     1
  8
0
100
AcDbBlockBegin
  2
*PAPER_SPACE
  1

  0
ENDBLK
  5
1D
330
1B
100
AcDbEntity
 67
     1
  8
0
100
AcDbBlockEnd
  0
ENDSEC
  0
SECTION
  2
ENTITIES
  0
LWPOLYLINE
  5
100
100
AcDbEntity
  8
Calque_1
 62
1
100
AcDbPolyline
 90
70
 70
1
 10
3.000000
 20
229.000000
 30
0.0
 10
13.959091
 20
229.000000
 30
0.0
 10
13.959091
 20
226.000000
 30
0.0
 10
24.768182
 20
226.000000
 30
0.0
 10
24.768182
 20
229.000000
 30
0.0
 10
35.777273
 20
229.000000
 30
0.0
 10
35.777273
 20
226.000000
 30
0.0
 10
46.586364
 20
226.000000
 30
0.0
 10
46.586364
 20
229.000000
 30
0.0
 10
57.595455
 20
229.000000
 30
0.0
 10
57.595455
 20
226.000000
 30
0.0
 10
68.404545
 20
226.000000
 30
0.0
 10
68.404545
 20
229.000000
 30
0.0
 10
79.413636
 20
229.000000
 30
0.0
 10
79.413636
 20
226.000000
 30
0.0
 10
90.222727
 20
226.000000
 30
0.0
 10
90.222727
 20
229.000000
 30
0.0
 10
101.231818
 20
229.000000
 30
0.0
 10
101.231818
 20
226.000000
 30
0.0
 10
112.040909
 20
226.000000
 30
0.0
 10
112.040909
 20
229.000000
 30
0.0
 10
123.000000
 20
229.000000
 30
0.0
 10
123.000000
 20
217.521429
 30
0.0
 10
120.000000
 20
217.521429
 30
0.0
 10
120.000000
 20
206.192857
 30
0.0
 10
123.000000
 20
206.192857
 30
0.0
 10
123.000000
 20
194.664286
 30
0.0
 10
120.000000
 20
194.664286
 30
0.0
 10
120.000000
 20
183.335714
 30
0.0
 10
123.000000
 20
183.335714
 30
0.0
 10
123.000000
 20
171.807143
 30
0.0
 10
120.000000
 20
171.807143
 30
0.0
 10
120.000000
 20
160.478571
 30
0.0
 10
123.000000
 20
160.478571
 30
0.0
 10
123.000000
 20
149.000000
 30
0.0
 10
112.040909
 20
149.000000
 30
0.0
 10
112.040909
 20
152.000000
 30
0.0
 10
101.231818
 20
152.000000
 30
0.0
 10
101.231818
 20
149.000000
 30
0.0
 10
90.222727
 20
149.000000
 30
0.0
 10
90.222727
 20
152.000000
 30
0.0
 10
79.413636
 20
152.000000
 30
0.0
 10
79.413636
 20
149.000000
 30
0.0
 10
68.404545
 20
149.000000
 30
0.0
 10
68.404545
 20
152.000000
 30
0.0
 10
57.595455
 20
152.000000
 30
0.0
 10
57.595455
 20
149.000000
 30
0.0
 10
46.586364
 20
149.000000
 30
0.0
 10
46.586364
 20
152.000000
 30
0.0
 10
35.777273
 20
152.000000
 30
0.0
 10
35.777273
 20
149.000000
 30
0.0
 10
24.768182
 20
149.000000
 30
0.0
 10
24.768182
 20
152.000000
 30
0.0
 10
13.959091
 20
152.000000
 30
0.0
 10
13.959091
 20
149.000000
 30
0.0
 10
3.000000
 20
149.000000
 30
0.0
 10
3.000000
 20
160.478571
 30
0.0
 10
6.000000
 20
160.478571
 30
0.0
 10
6.000000
 20
171.807143
 30
0.0
 10
3.000000
 20
171.807143
 30
0.0
 10
3.000000
 20
183.335714
 30
0.0
 10
6.000000
 20
183.335714
 30
0.0
 10
6.000000
 20
194.664286
 30
0.0
 10
3.000000
 20
194.664286
 30
0.0
 10
3.000000
 20
206.192857
 30
0.0
 10
6.000000
 20
206.192857
 30
0.0
 10
6.000000
 20
217.521429
 30
0.0
 10
3.000000
 20
217.521429
 30
0.0
 10
3.000000
 20
229.000000
 30
0.0
 10
3.000000
 20
229.000000
 30
0.0
  0
LWPOLYLINE
  5
101
100
AcDbEntity
  8
Calque_1
 62
1
100
AcDbPolyline
 90
70
 70
1
 10
126.000000
 20
229.000000
 30
0.0
 10
136.959091
 20
229.000000
 30
0.0
 10
136.959091
 20
226.000000
 30
0.0
 10
147.768182
 20
226.000000
 30
0.0
 10
147.768182
 20
229.000000
 30
0.0
 10
158.777273
 20
229.000000
 30
0.0
 10
158.777273
 20
226.000000
 30
0.0
 10
169.586364
 20
226.000000
 30
0.0
 10
169.586364
 20
229.000000
 30
0.0
 10
180.595455
 20
229.000000
 30
0.0
 10
180.595455
 20
226.000000
 30
0.0
 10
191.404545
 20
226.000000
 30
0.0
 10
191.404545
 20
229.000000
 30
0.0
 10
202.413636
 20
229.000000
 30
0.0
 10
202.413636
 20
226.000000
 30
0.0
 10
213.222727
 20
226.000000
 30
0.0
 10
213.222727
 20
229.000000
 30
0.0
 10
224.231818
 20
229.000000
 30
0.0
 10
224.231818
 20
226.000000
 30
0.0
 10
235.040909
 20
226.000000
 30
0.0
 10
235.040909
 20
229.000000
 30
0.0
 10
246.000000
 20
229.000000
 30
0.0
 10
246.000000
 20
217.521429
 30
0.0
 10
243.000000
 20
217.521429
 30
0.0
 10
243.000000
 20
206.192857
 30
0.0
 10
246.000000
 20
206.192857
 30
0.0
 10
246.000000
 20
194.664286
 30
0.0
 10
243.000000
 20
194.664286
 30
0.0
 10
243.000000
 20
183.335714
 30
0.0
 10
246.000000
 20
183.335714
 30
0.0
 10
246.000000
 20
171.807143
 30
0.0
 10
243.000000
 20
171.807143
 30
0.0
 10
243.000000
 20
160.478571
 30
0.0
 10
246.000000
 20
160.478571
 30
0.0
 10
246.000000
 20
149.000000
 30
0.0
 10
235.040909
 20
149.000000
 30
0.0
 10
235.040909
 20
152.000000
 30
0.0
 10
224.231818
 20
152.000000
 30
0.0
 10
224.231818
 20
149.000000
 30
0.0
 10
213.222727
 20
149.000000
 30
0.0
 10
213.222727
 20
152.000000
 30
0.0
 10
202.413636
 20
152.000000
 30
0.0
 10
202.413636
 20
149.000000
 30
0.0
 10
191.404545
 20
149.000000
 30
0.0
 10
191.404545
 20
152.000000
 30
0.0
 10
180.595455
 20
152.000000
 30
0.0
 10
180.595455
 20
149.000000
 30
0.0
 10
169.586364
 20
149.000000
 30
0.0
 10
169.586364
 20
152.000000
 30
0.0
 10
158.777273
 20
152.000000
 30
0.0
 10
158.777273
 20
149.000000
 30
0.0
 10
147.768182
 20
149.000000
 30
0.0
 10
147.768182
 20
152.000000
 30
0.0
 10
136.959091
 20
152.000000
 30
0.0
 10
136.959091
 20
149.000000
 30
0.0
 10
126.000000
 20
149.000000
 30
0.0
 10
126.000000
 20
160.478571
 30
0.0
 10
129.000000
 20
160.478571
 30
0.0
 10
129.000000
 20
171.807143
 30
0.0
 10
126.000000
 20
171.807143
 30
0.0
 10
126.000000
 20
183.335714
 30
0.0
 10
129.000000
 20
183.335714
 30
0.0
 10
129.000000
 20
194.664286
 30
0.0
 10
126.000000
 20
194.664286
 30
0.0
 10
126.000000
 20
206.192857
 30
0.0
 10
129.000000
 20
206.192857
 30
0.0
 10
129.000000
 20
217.521429
 30
0.0
 10
126.000000
 20
217.521429
 30
0.0
 10
126.000000
 20
229.000000
 30
0.0
 10
126.000000
 20
229.000000
 30
0.0
  0
LWPOLYLINE
  5
102
100
AcDbEntity
  8
Calque_1
 62
1
100
AcDbPolyline
 90
62
 70
1
 10
126.000000
 20
143.000000
 30
0.0
 10
136.859091
 20
143.000000
 30
0.0
 10
136.859091
 20
146.000000
 30
0.0
 10
147.868182
 20
146.000000
 30
0.0
 10
147.868182
 20
143.000000
 30
0.0
 10
158.677273
 20
143.000000
 30
0.0
 10
158.677273
 20
146.000000
 30
0.0
 10
169.686364
 20
146.000000
 30
0.0
 10
169.686364
 20
143.000000
 30
0.0
 10
180.495455
 20
143.000000
 30
0.0
 10
180.495455
 20
146.000000
 30
0.0
 10
191.504545
 20
146.000000
 30
0.0
 10
191.504545
 20
143.000000
 30
0.0
 10
202.313636
 20
143.000000
 30
0.0
 10
202.313636
 20
146.000000
 30
0.0
 10
213.322727
 20
146.000000
 30
0.0
 10
213.322727
 20
143.000000
 30
0.0
 10
224.131818
 20
143.000000
 30
0.0
 10
224.131818
 20
146.000000
 30
0.0
 10
235.140909
 20
146.000000
 30
0.0
 10
235.140909
 20
143.000000
 30
0.0
 10
246.000000
 20
143.000000
 30
0.0
 10
246.000000
 20
130.150000
 30
0.0
 10
243.000000
 20
130.150000
 30
0.0
 10
243.000000
 20
117.450000
 30
0.0
 10
246.000000
 20
117.450000
 30
0.0
 10
246.000000
 20
104.550000
 30
0.0
 10
243.000000
 20
104.550000
 30
0.0
 10
243.000000
 20
91.850000
 30
0.0
 10
246.000000
 20
91.850000
 30
0.0
 10
246.000000
 20
79.000000
 30
0.0
 10
235.140909
 20
79.000000
 30
0.0
 10
235.140909
 20
76.000000
 30
0.0
 10
224.131818
 20
76.000000
 30
0.0
 10
224.131818
 20
79.000000
 30
0.0
 10
213.322727
 20
79.000000
 30
0.0
 10
213.322727
 20
76.000000
 30
0.0
 10
202.313636
 20
76.000000
 30
0.0
 10
202.313636
 20
79.000000
 30
0.0
 10
191.504545
 20
79.000000
 30
0.0
 10
191.504545
 20
76.000000
 30
0.0
 10
180.495455
 20
76.000000
 30
0.0
 10
180.495455
 20
79.000000
 30
0.0
 10
169.686364
 20
79.000000
 30
0.0
 10
169.686364
 20
76.000000
 30
0.0
 10
158.677273
 20
76.000000
 30
0.0
 10
158.677273
 20
79.000000
 30
0.0
 10
147.868182
 20
79.000000
 30
0.0
 10
147.868182
 20
76.000000
 30
0.0
 10
136.859091
 20
76.000000
 30
0.0
 10
136.859091
 20
79.000000
 30
0.0
 10
126.000000
 20
79.000000
 30
0.0
 10
126.000000
 20
91.850000
 30
0.0
 10
129.000000
 20
91.850000
 30
0.0
 10
129.000000
 20
104.550000
 30
0.0
 10
126.000000
 20
104.550000
 30
0.0
 10
126.000000
 20
117.450000
 30
0.0
 10
129.000000
 20
117.450000
 30
0.0
 10
129.000000
 20
130.150000
 30
0.0
 10
126.000000
 20
130.150000
 30
0.0
 10
126.000000
 20
143.000000
 30
0.0
 10
126.000000
 20
143.000000
 30
0.0
  0
LWPOLYLINE
  5
103
100
AcDbEntity
  8
Calque_1
 62
1
100
AcDbPolyline
 90
62
 70
1
 10
3.000000
 20
143.000000
 30
0.0
 10
13.859091
 20
143.000000
 30
0.0
 10
13.859091
 20
146.000000
 30
0.0
 10
24.868182
 20
146.000000
 30
0.0
 10
24.868182
 20
143.000000
 30
0.0
 10
35.677273
 20
143.000000
 30
0.0
 10
35.677273
 20
146.000000
 30
0.0
 10
46.686364
 20
146.000000
 30
0.0
 10
46.686364
 20
143.000000
 30
0.0
 10
57.495455
 20
143.000000
 30
0.0
 10
57.495455
 20
146.000000
 30
0.0
 10
68.504545
 20
146.000000
 30
0.0
 10
68.504545
 20
143.000000
 30
0.0
 10
79.313636
 20
143.000000
 30
0.0
 10
79.313636
 20
146.000000
 30
0.0
 10
90.322727
 20
146.000000
 30
0.0
 10
90.322727
 20
143.000000
 30
0.0
 10
101.131818
 20
143.000000
 30
0.0
 10
101.131818
 20
146.000000
 30
0.0
 10
112.140909
 20
146.000000
 30
0.0
 10
112.140909
 20
143.000000
 30
0.0
 10
123.000000
 20
143.000000
 30
0.0
 10
123.000000
 20
130.150000
 30
0.0
 10
120.000000
 20
130.150000
 30
0.0
 10
120.000000
 20
117.450000
 30
0.0
 10
123.000000
 20
117.450000
 30
0.0
 10
123.000000
 20
104.550000
 30
0.0
 10
120.000000
 20
104.550000
 30
0.0
 10
120.000000
 20
91.850000
 30
0.0
 10
123.000000
 20
91.850000
 30
0.0
 10
123.000000
 20
79.000000
 30
0.0
 10
112.140909
 20
79.000000
 30
0.0
 10
112.140909
 20
76.000000
 30
0.0
 10
101.131818
 20
76.000000
 30
0.0
 10
101.131818
 20
79.000000
 30
0.0
 10
90.322727
 20
79.000000
 30
0.0
 10
90.322727
 20
76.000000
 30
0.0
 10
79.313636
 20
76.000000
 30
0.0
 10
79.313636
 20
79.000000
 30
0.0
 10
68.504545
 20
79.000000
 30
0.0
 10
68.504545
 20
76.000000
 30
0.0
 10
57.495455
 20
76.000000
 30
0.0
 10
57.495455
 20
79.000000
 30
0.0
 10
46.686364
 20
79.000000
 30
0.0
 10
46.686364
 20
76.000000
 30
0.0
 10
35.677273
 20
76.000000
 30
0.0
 10
35.677273
 20
79.000000
 30
0.0
 10
24.868182
 20
79.000000
 30
0.0
 10
24.868182
 20
76.000000
 30
0.0
 10
13.859091
 20
76.000000
 30
0.0
 10
13.859091
 20
79.000000
 30
0.0
 10
3.000000
 20
79.000000
 30
0.0
 10
3.000000
 20
91.850000
 30
0.0
 10
6.000000
 20
91.850000
 30
0.0
 10
6.000000
 20
104.550000
 30
0.0
 10
3.000000
 20
104.550000
 30
0.0
 10
3.000000
 20
117.450000
 30
0.0
 10
6.000000
 20
117.450000
 30
0.0
 10
6.000000
 20
130.150000
 30
0.0
 10
3.000000
 20
130.150000
 30
0.0
 10
3.000000
 20
143.000000
 30
0.0
 10
3.000000
 20
143.000000
 30
0.0
  0
LWPOLYLINE
  5
104
100
AcDbEntity
  8
Calque_1
 62
1
100
AcDbPolyline
 90
46
 70
1
 10
89.000000
 20
70.000000
 30
0.0
 10
97.378571
 20
70.000000
 30
0.0
 10
97.378571
 20
73.000000
 30
0.0
 10
108.907143
 20
73.000000
 30
0.0
 10
108.907143
 20
70.000000
 30
0.0
 10
120.235714
 20
70.000000
 30
0.0
 10
120.235714
 20
73.000000
 30
0.0
 10
131.764286
 20
73.000000
 30
0.0
 10
131.764286
 20
70.000000
 30
0.0
 10
143.092857
 20
70.000000
 30
0.0
 10
143.092857
 20
73.000000
 30
0.0
 10
154.621429
 20
73.000000
 30
0.0
 10
154.621429
 20
70.000000
 30
0.0
 10
163.000000
 20
70.000000
 30
0.0
 10
163.000000
 20
57.250000
 30
0.0
 10
166.000000
 20
57.250000
 30
0.0
 10
166.000000
 20
44.350000
 30
0.0
 10
163.000000
 20
44.350000
 30
0.0
 10
163.000000
 20
31.650000
 30
0.0
 10
166.000000
 20
31.650000
 30
0.0
 10
166.000000
 20
18.750000
 30
0.0
 10
163.000000
 20
18.750000
 30
0.0
 10
163.000000
 20
6.000000
 30
0.0
 10
154.621429
 20
6.000000
 30
0.0
 10
154.621429
 20
3.000000
 30
0.0
 10
143.092857
 20
3.000000
 30
0.0
 10
143.092857
 20
6.000000
 30
0.0
 10
131.764286
 20
6.000000
 30
0.0
 10
131.764286
 20
3.000000
 30
0.0
 10
120.235714
 20
3.000000
 30
0.0
 10
120.235714
 20
6.000000
 30
0.0
 10
108.907143
 20
6.000000
 30
0.0
 10
108.907143
 20
3.000000
 30
0.0
 10
97.378571
 20
3.000000
 30
0.0
 10
97.378571
 20
6.000000
 30
0.0
 10
89.000000
 20
6.000000
 30
0.0
 10
89.000000
 20
18.750000
 30
0.0
 10
86.000000
 20
18.750000
 30
0.0
 10
86.000000
 20
31.650000
 30
0.0
 10
89.000000
 20
31.650000
 30
0.0
 10
89.000000
 20
44.350000
 30
0.0
 10
86.000000
 20
44.350000
 30
0.0
 10
86.000000
 20
57.250000
 30
0.0
 10
89.000000
 20
57.250000
 30
0.0
 10
89.000000
 20
70.000000
 30
0.0
 10
89.000000
 20
70.000000
 30
0.0
  0
LWPOLYLINE
  5
105
100
AcDbEntity
  8
Calque_1
 62
1
100
AcDbPolyline
 90
46
 70
1
 10
6.000000
 20
70.000000
 30
0.0
 10
14.378571
 20
70.000000
 30
0.0
 10
14.378571
 20
73.000000
 30
0.0
 10
25.907143
 20
73.000000
 30
0.0
 10
25.907143
 20
70.000000
 30
0.0
 10
37.235714
 20
70.000000
 30
0.0
 10
37.235714
 20
73.000000
 30
0.0
 10
48.764286
 20
73.000000
 30
0.0
 10
48.764286
 20
70.000000
 30
0.0
 10
60.092857
 20
70.000000
 30
0.0
 10
60.092857
 20
73.000000
 30
0.0
 10
71.621429
 20
73.000000
 30
0.0
 10
71.621429
 20
70.000000
 30
0.0
 10
80.000000
 20
70.000000
 30
0.0
 10
80.000000
 20
57.250000
 30
0.0
 10
83.000000
 20
57.250000
 30
0.0
 10
83.000000
 20
44.350000
 30
0.0
 10
80.000000
 20
44.350000
 30
0.0
 10
80.000000
 20
31.650000
 30
0.0
 10
83.000000
 20
31.650000
 30
0.0
 10
83.000000
 20
18.750000
 30
0.0
 10
80.000000
 20
18.750000
 30
0.0
 10
80.000000
 20
6.000000
 30
0.0
 10
71.621429
 20
6.000000
 30
0.0
 10
71.621429
 20
3.000000
 30
0.0
 10
60.092857
 20
3.000000
 30
0.0
 10
60.092857
 20
6.000000
 30
0.0
 10
48.764286
 20
6.000000
 30
0.0
 10
48.764286
 20
3.000000
 30
0.0
 10
37.235714
 20
3.000000
 30
0.0
 10
37.235714
 20
6.000000
 30
0.0
 10
25.907143
 20
6.000000
 30
0.0
 10
25.907143
 20
3.000000
 30
0.0
 10
14.378571
 20
3.000000
 30
0.0
 10
14.378571
 20
6.000000
 30
0.0
 10
6.000000
 20
6.000000
 30
0.0
 10
6.000000
 20
18.750000
 30
0.0
 10
3.000000
 20
18.750000
 30
0.0
 10
3.000000
 20
31.650000
 30
0.0
 10
6.000000
 20
31.650000
 30
0.0
 10
6.000000
 20
44.350000
 30
0.0
 10
3.000000
 20
44.350000
 30
0.0
 10
3.000000
 20
57.250000
 30
0.0
 10
6.000000
 20
57.250000
 30
0.0
 10
6.000000
 20
70.000000
 30
0.0
 10
6.000000
 20
70.000000
 30
0.0
  0
LWPOLYLINE
  5
106
100
AcDbEntity
  8
Calque_1
 62
7
100
AcDbPolyline
 90
5
 70
1
 10
27.152163
 20
170.623962
 30
0.0
 10
46.207311
 20
170.623962
 30
0.0
 10
46.207311
 20
156.568813
 30
0.0
 10
27.152163
 20
156.568813
 30
0.0
 10
27.152163
 20
170.623962
 30
0.0
  0
LWPOLYLINE
  5
107
100
AcDbEntity
  8
Calque_1
 62
7
100
AcDbPolyline
 90
5
 70
1
 10
58.536865
 20
170.424112
 30
0.0
 10
77.592014
 20
170.424112
 30
0.0
 10
77.592014
 20
156.368963
 30
0.0
 10
58.536865
 20
156.368963
 30
0.0
 10
58.536865
 20
170.424112
 30
0.0
  0
LWPOLYLINE
  5
108
100
AcDbEntity
  8
Calque_1
 62
7
100
AcDbPolyline
 90
5
 70
1
 10
209.942328
 20
179.199962
 30
0.0
 10
228.966206
 20
179.199962
 30
0.0
 10
228.966206
 20
165.176085
 30
0.0
 10
209.942328
 20
165.176085
 30
0.0
 10
209.942328
 20
179.199962
 30
0.0
  0
SPLINE
  5
109
100
AcDbEntity
  8
Calque_1
 62
7
100
AcDbSpline
 70
0
 71
3
 72
19
 73
15
 74
13
 40
0.000000
 40
0.000000
 40
0.000000
 40
0.000000
 40
0.260062
 40
0.485769
 40
0.688284
 40
0.876503
 40
1.062825
 40
1.266413
 40
1.447439
 40
1.608081
 40
1.758393
 40
1.921950
 40
2.118753
 40
2.354666
 40
2.354666
 40
2.354666
 40
2.354666
 10
39.185342
 20
178.017284
 30
0.0
 10
39.098510
 20
178.014063
 30
0.0
 10
38.936318
 20
178.008046
 30
0.0
 10
38.712486
 20
177.948033
 30
0.0
 10
38.530659
 20
177.847329
 30
0.0
 10
38.394869
 20
177.706276
 30
0.0
 10
38.314278
 20
177.527115
 30
0.0
 10
38.294080
 20
177.335675
 30
0.0
 10
38.309238
 20
177.153624
 30
0.0
 10
38.358589
 20
176.995458
 30
0.0
 10
38.446907
 20
176.861223
 30
0.0
 10
38.581529
 20
176.753884
 30
0.0
 10
38.758515
 20
176.661490
 30
0.0
 10
38.895620
 20
176.616058
 30
0.0
 10
38.970368
 20
176.591289
 30
0.0
 11
39.185342
 21
178.017284
 31
0.0
 11
38.926057
 21
177.997205
 31
0.0
 11
38.708541
 21
177.936949
 31
0.0
 11
38.532703
 21
177.836484
 31
0.0
 11
38.403495
 21
177.699620
 31
0.0
 11
38.325946
 21
177.530203
 31
0.0
 11
38.300090
 21
177.328264
 31
0.0
 11
38.316759
 21
177.148007
 31
0.0
 11
38.366747
 21
176.995340
 31
0.0
 11
38.450020
 21
176.870203
 31
0.0
 11
38.575229
 21
176.764973
 31
0.0
 11
38.748699
 21
176.672022
 31
0.0
 11
38.970368
 21
176.591289
 31
0.0
  0
LWPOLYLINE
  5
10a
100
AcDbEntity
  8
Calque_1
 62
7
100
AcDbPolyline
 90
2
 70
0
 10
38.970368
 20
176.591289
 30
0.0
 10
39.309367
 20
176.489313
 30
0.0
  0
SPLINE
  5
10b
100
AcDbEntity
  8
Calque_1
 62
7
100
AcDbSpline
 70
0
 71
3
 72
25
 73
21
 74
19
 40
0.000000
 40
0.000000
 40
0.000000
 40
0.000000
 40
0.195591
 40
0.346913
 40
0.457288
 40
0.550998
 40
0.651827
 40
0.766833
 40
0.910623
 40
1.040373
 40
1.170173
 40
1.310322
 40
1.471081
 40
1.659717
 40
1.861140
 40
2.031350
 40
2.179756
 40
2.322669
 40
2.478020
 40
2.657890
 40
2.657890
 40
2.657890
 40
2.657890
 10
39.309367
 20
176.489313
 30
0.0
 10
39.371504
 20
176.469393
 30
0.0
 10
39.481713
 20
176.434061
 30
0.0
 10
39.620820
 20
176.371090
 30
0.0
 10
39.719737
 20
176.303045
 30
0.0
 10
39.779545
 20
176.218518
 30
0.0
 10
39.811810
 20
176.119217
 30
0.0
 10
39.821530
 20
175.999109
 30
0.0
 10
39.807974
 20
175.868832
 30
0.0
 10
39.752384
 20
175.743505
 30
0.0
 10
39.657477
 20
175.646293
 30
0.0
 10
39.528607
 20
175.578896
 30
0.0
 10
39.368801
 20
175.540383
 30
0.0
 10
39.184963
 20
175.529558
 30
0.0
 10
38.997799
 20
175.541265
 30
0.0
 10
38.828857
 20
175.585838
 30
0.0
 10
38.693439
 20
175.664796
 30
0.0
 10
38.599254
 20
175.783928
 30
0.0
 10
38.542227
 20
175.935426
 30
0.0
 10
38.533876
 20
176.047296
 30
0.0
 10
38.529395
 20
176.107323
 30
0.0
 11
39.309367
 21
176.489313
 31
0.0
 11
39.494290
 21
176.425598
 31
0.0
 11
39.631011
 21
176.360748
 31
0.0
 11
39.719470
 21
176.294735
 31
0.0
 11
39.773999
 21
176.218525
 31
0.0
 11
39.806695
 21
176.123144
 31
0.0
 11
39.817588
 21
176.008655
 31
0.0
 11
39.799704
 21
175.865981
 31
0.0
 11
39.745929
 21
175.747899
 31
0.0
 11
39.656080
 21
175.654223
 31
0.0
 11
39.532996
 21
175.587200
 31
0.0
 11
39.377360
 21
175.546941
 31
0.0
 11
39.189203
 21
175.533508
 31
0.0
 11
38.988375
 21
175.548993
 31
0.0
 11
38.824634
 21
175.595469
 31
0.0
 11
38.698068
 21
175.672966
 31
0.0
 11
38.608149
 21
175.784045
 31
0.0
 11
38.551945
 21
175.928872
 31
0.0
 11
38.529395
 21
176.107323
 31
0.0
  0
LWPOLYLINE
  5
10c
100
AcDbEntity
  8
Calque_1
 62
7
100
AcDbPolyline
 90
3
 70
0
 10
38.529395
 20
176.107323
 30
0.0
 10
38.330959
 20
176.108976
 30
0.0
 10
38.330959
 20
175.523035
 30
0.0
  0
SPLINE
  5
10d
100
AcDbEntity
  8
Calque_1
 62
7
100
AcDbSpline
 70
0
 71
3
 72
25
 73
21
 74
19
 40
0.000000
 40
0.000000
 40
0.000000
 40
0.000000
 40
0.159937
 40
0.315043
 40
0.465728
 40
0.613652
 40
0.758383
 40
0.900615
 40
1.191178
 40
1.437150
 40
1.650547
 40
1.848626
 40
2.052635
 40
2.282906
 40
2.453923
 40
2.607645
 40
2.754070
 40
2.912761
 40
3.101240
 40
3.325400
 40
3.325400
 40
3.325400
 40
3.325400
 10
38.330959
 20
175.523035
 30
0.0
 10
38.380993
 20
175.504585
 30
0.0
 10
38.479547
 20
175.468242
 30
0.0
 10
38.628782
 20
175.425019
 30
0.0
 10
38.776226
 20
175.390994
 30
0.0
 10
38.922168
 20
175.367137
 30
0.0
 10
39.066514
 20
175.352603
 30
0.0
 10
39.258997
 20
175.346342
 30
0.0
 10
39.485746
 20
175.360050
 30
0.0
 10
39.730364
 20
175.419976
 30
0.0
 10
39.925800
 20
175.526066
 30
0.0
 10
40.067129
 20
175.680605
 30
0.0
 10
40.147959
 20
175.879351
 30
0.0
 10
40.168130
 20
176.082087
 30
0.0
 10
40.152986
 20
176.267465
 30
0.0
 10
40.103051
 20
176.418412
 30
0.0
 10
40.014568
 20
176.545776
 30
0.0
 10
39.885895
 20
176.650827
 30
0.0
 10
39.716257
 20
176.739730
 30
0.0
 10
39.585468
 20
176.782843
 30
0.0
 10
39.514419
 20
176.806263
 30
0.0
 11
38.330959
 21
175.523035
 31
0.0
 11
38.481676
 21
175.469516
 31
0.0
 11
38.630555
 21
175.426010
 31
0.0
 11
38.777443
 21
175.392397
 31
0.0
 11
38.923423
 21
175.368490
 31
0.0
 11
39.067443
 21
175.354168
 31
0.0
 11
39.209596
 21
175.349401
 31
0.0
 11
39.499403
 21
175.370347
 31
0.0
 11
39.737180
 21
175.433308
 31
0.0
 11
39.922868
 21
175.538467
 31
0.0
 11
40.055834
 21
175.685284
 31
0.0
 11
40.135546
 21
175.873076
 31
0.0
 11
40.162096
 21
176.101811
 31
0.0
 11
40.145427
 21
176.272013
 31
0.0
 11
40.095439
 21
176.417381
 31
0.0
 11
40.012166
 21
176.537822
 31
0.0
 11
39.891032
 21
176.640336
 31
0.0
 11
39.725126
 21
176.729776
 31
0.0
 11
39.514419
 21
176.806263
 31
0.0
  0
LWPOLYLINE
  5
10e
100
AcDbEntity
  8
Calque_1
 62
7
100
AcDbPolyline
 90
2
 70
0
 10
39.514419
 20
176.806263
 30
0.0
 10
39.195815
 20
176.901073
 30
0.0
  0
SPLINE
  5
10f
100
AcDbEntity
  8
Calque_1
 62
7
100
AcDbSpline
 70
0
 71
3
 72
25
 73
21
 74
19
 40
0.000000
 40
0.000000
 40
0.000000
 40
0.000000
 40
0.215600
 40
0.381842
 40
0.502036
 40
0.600654
 40
0.703408
 40
0.818083
 40
0.949068
 40
1.066435
 40
1.182005
 40
1.308061
 40
1.451343
 40
1.618873
 40
1.809467
 40
1.969317
 40
2.106278
 40
2.237730
 40
2.382193
 40
2.550191
 40
2.550191
 40
2.550191
 40
2.550191
 10
39.195815
 20
176.901073
 30
0.0
 10
39.127218
 20
176.922714
 30
0.0
 10
39.005729
 20
176.961043
 30
0.0
 10
38.852412
 20
177.028551
 30
0.0
 10
38.743549
 20
177.099673
 30
0.0
 10
38.678288
 20
177.187186
 30
0.0
 10
38.642711
 20
177.287763
 30
0.0
 10
38.632471
 20
177.404239
 30
0.0
 10
38.644736
 20
177.525826
 30
0.0
 10
38.692823
 20
177.639698
 30
0.0
 10
38.776359
 20
177.728617
 30
0.0
 10
38.890470
 20
177.790961
 30
0.0
 10
39.032806
 20
177.826873
 30
0.0
 10
39.200217
 20
177.836768
 30
0.0
 10
39.373103
 20
177.826262
 30
0.0
 10
39.532265
 20
177.787843
 30
0.0
 10
39.659338
 20
177.717928
 30
0.0
 10
39.752943
 20
177.613774
 30
0.0
 10
39.814424
 20
177.476640
 30
0.0
 10
39.830104
 20
177.373334
 30
0.0
 10
39.838534
 20
177.317791
 30
0.0
 11
39.195815
 21
176.901073
 31
0.0
 11
38.991580
 21
176.970148
 31
0.0
 11
38.840537
 21
177.039591
 31
0.0
 11
38.742716
 21
177.109432
 31
0.0
 11
38.683492
 21
177.188286
 31
0.0
 11
38.648092
 21
177.284749
 31
0.0
 11
38.636332
 21
177.398819
 31
0.0
 11
38.651991
 21
177.528866
 31
0.0
 11
38.699007
 21
177.636404
 31
0.0
 11
38.777443
 21
177.721281
 31
0.0
 11
38.887095
 21
177.783465
 31
0.0
 11
39.025439
 21
177.820754
 31
0.0
 11
39.192508
 21
177.833176
 31
0.0
 11
39.382616
 21
177.819570
 31
0.0
 11
39.537171
 21
177.778770
 31
0.0
 11
39.656080
 21
177.710808
 31
0.0
 11
39.744468
 21
177.613508
 31
0.0
 11
39.805266
 21
177.482461
 31
0.0
 11
39.838534
 21
177.317791
 31
0.0
  0
LWPOLYLINE
  5
110
100
AcDbEntity
  8
Calque_1
 62
7
100
AcDbPolyline
 90
3
 70
0
 10
39.838534
 20
177.317791
 30
0.0
 10
40.033112
 20
177.317791
 30
0.0
 10
40.033112
 20
177.865700
 30
0.0
  0
LWPOLYLINE
  5
111
100
AcDbEntity
  8
Calque_1
 62
7
100
AcDbPolyline
 90
2
 70
0
 10
39.185342
 20
178.017284
 30
0.0
 10
39.185342
 20
178.017284
 30
0.0
  0
SPLINE
  5
112
100
AcDbEntity
  8
Calque_1
 62
7
100
AcDbSpline
 70
0
 71
3
 72
13
 73
9
 74
7
 40
0.000000
 40
0.000000
 40
0.000000
 40
0.000000
 40
0.164097
 40
0.320200
 40
0.468575
 40
0.608956
 40
0.740669
 40
0.864078
 40
0.864078
 40
0.864078
 40
0.864078
 10
40.033112
 20
177.865700
 30
0.0
 10
39.980660
 20
177.881237
 30
0.0
 10
39.878312
 20
177.911556
 30
0.0
 10
39.726567
 20
177.948837
 30
0.0
 10
39.581138
 20
177.977993
 30
0.0
 10
39.442768
 20
178.000467
 30
0.0
 10
39.311533
 20
178.014473
 30
0.0
 10
39.226483
 20
178.016368
 30
0.0
 10
39.185342
 20
178.017284
 30
0.0
 11
40.033112
 21
177.865700
 31
0.0
 11
39.875404
 21
177.911041
 31
0.0
 11
39.723819
 21
177.948329
 31
0.0
 11
39.578359
 21
177.977595
 31
0.0
 11
39.439718
 21
177.999624
 31
0.0
 11
39.308672
 21
178.012864
 31
0.0
 11
39.185342
 21
178.017284
 31
0.0
  0
LWPOLYLINE
  5
113
100
AcDbEntity
  8
Calque_1
 62
7
100
AcDbPolyline
 90
7
 70
0
 10
40.616849
 20
177.970980
 30
0.0
 10
40.616849
 20
177.786325
 30
0.0
 10
40.944269
 20
177.786325
 30
0.0
 10
40.944269
 20
175.581464
 30
0.0
 10
40.616849
 20
175.581464
 30
0.0
 10
40.616849
 20
175.399010
 30
0.0
 10
41.640455
 20
175.399010
 30
0.0
  0
LWPOLYLINE
  5
114
100
AcDbEntity
  8
Calque_1
 62
7
100
AcDbPolyline
 90
3
 70
0
 10
41.640455
 20
177.970980
 30
0.0
 10
40.616849
 20
177.970980
 30
0.0
 10
40.616849
 20
177.970980
 30
0.0
  0
SPLINE
  5
115
100
AcDbEntity
  8
Calque_1
 62
7
100
AcDbSpline
 70
0
 71
3
 72
19
 73
15
 74
13
 40
0.000000
 40
0.000000
 40
0.000000
 40
0.000000
 40
0.411509
 40
0.774827
 40
1.113245
 40
1.442969
 40
1.782312
 40
2.159371
 40
2.535181
 40
2.873270
 40
3.202018
 40
3.539275
 40
3.902424
 40
4.314679
 40
4.314679
 40
4.314679
 40
4.314679
 10
41.640455
 20
175.399010
 30
0.0
 10
41.777955
 20
175.405176
 30
0.0
 10
42.036852
 20
175.416787
 30
0.0
 10
42.394858
 20
175.532452
 30
0.0
 10
42.684875
 20
175.725475
 30
0.0
 10
42.899493
 20
175.991077
 30
0.0
 10
43.025132
 20
176.321968
 30
0.0
 10
43.059582
 20
176.687333
 30
0.0
 10
43.025171
 20
177.052287
 30
0.0
 10
42.899455
 20
177.381978
 30
0.0
 10
42.684754
 20
177.645990
 30
0.0
 10
42.395342
 20
177.838456
 30
0.0
 10
42.037265
 20
177.953319
 30
0.0
 10
41.778194
 20
177.964850
 30
0.0
 10
41.640455
 20
177.970980
 30
0.0
 11
41.640455
 21
175.399010
 31
0.0
 11
42.050212
 21
175.436942
 31
0.0
 11
42.395263
 21
175.550696
 31
0.0
 11
42.675638
 21
175.740214
 31
0.0
 11
42.882344
 21
175.997100
 31
0.0
 11
43.006367
 21
176.312967
 31
0.0
 11
43.047708
 21
176.687752
 31
0.0
 11
43.006367
 21
177.061281
 31
0.0
 11
42.882344
 21
177.375801
 31
0.0
 11
42.675638
 21
177.631433
 31
0.0
 11
42.396028
 21
177.820009
 31
0.0
 11
42.050978
 21
177.933222
 31
0.0
 11
41.640455
 21
177.970980
 31
0.0
  0
LWPOLYLINE
  5
116
100
AcDbEntity
  8
Calque_1
 62
7
100
AcDbPolyline
 90
6
 70
0
 10
33.754218
 20
177.798452
 30
0.0
 10
33.754218
 20
177.230147
 30
0.0
 10
33.475303
 20
177.230147
 30
0.0
 10
33.475303
 20
177.046042
 30
0.0
 10
33.754218
 20
177.046042
 30
0.0
 10
33.754218
 20
175.882978
 30
0.0
  0
SPLINE
  5
117
100
AcDbEntity
  8
Calque_1
 62
7
100
AcDbSpline
 70
0
 71
3
 72
19
 73
15
 74
13
 40
0.000000
 40
0.000000
 40
0.000000
 40
0.000000
 40
0.175781
 40
0.318754
 40
0.437333
 40
0.552350
 40
0.687558
 40
0.852868
 40
1.005751
 40
1.135575
 40
1.250736
 40
1.365872
 40
1.495663
 40
1.648660
 40
1.648660
 40
1.648660
 40
1.648660
 10
33.754218
 20
175.882978
 30
0.0
 10
33.756119
 20
175.824275
 30
0.0
 10
33.759566
 20
175.717825
 30
0.0
 10
33.796039
 20
175.575345
 30
0.0
 10
33.861072
 20
175.464506
 30
0.0
 10
33.965408
 20
175.393375
 30
0.0
 10
34.100240
 20
175.355793
 30
0.0
 10
34.251671
 20
175.345906
 30
0.0
 10
34.401326
 20
175.355781
 30
0.0
 10
34.530118
 20
175.392852
 30
0.0
 10
34.632735
 20
175.459502
 30
0.0
 10
34.705041
 20
175.558020
 30
0.0
 10
34.750330
 20
175.684477
 30
0.0
 10
34.759230
 20
175.778591
 30
0.0
 10
34.764046
 20
175.829509
 30
0.0
 11
33.754218
 21
175.882978
 31
0.0
 11
33.766957
 21
175.707660
 31
0.0
 11
33.805052
 21
175.569856
 31
0.0
 11
33.868320
 21
175.469565
 31
0.0
 11
33.961894
 21
175.402685
 31
0.0
 11
34.091052
 21
175.362691
 31
0.0
 11
34.255826
 21
175.349401
 31
0.0
 11
34.408175
 21
175.362171
 31
0.0
 11
34.532199
 21
175.400541
 31
0.0
 11
34.627896
 21
175.464604
 31
0.0
 11
34.697390
 21
175.556403
 31
0.0
 11
34.742784
 21
175.677997
 31
0.0
 11
34.764046
 21
175.829509
 31
0.0
  0
LWPOLYLINE
  5
118
100
AcDbEntity
  8
Calque_1
 62
7
100
AcDbPolyline
 90
2
 70
0
 10
34.764046
 20
175.829509
 30
0.0
 10
34.524267
 20
175.829509
 30
0.0
  0
LWPOLYLINE
  5
119
100
AcDbEntity
  8
Calque_1
 62
7
100
AcDbPolyline
 90
8
 70
0
 10
34.072822
 20
175.882978
 30
0.0
 10
34.072822
 20
177.046042
 30
0.0
 10
34.669236
 20
177.046042
 30
0.0
 10
34.669236
 20
177.230147
 30
0.0
 10
34.072822
 20
177.230147
 30
0.0
 10
34.072822
 20
177.798452
 30
0.0
 10
33.754218
 20
177.798452
 30
0.0
 10
33.754218
 20
177.798452
 30
0.0
  0
SPLINE
  5
11a
100
AcDbEntity
  8
Calque_1
 62
7
100
AcDbSpline
 70
0
 71
3
 72
19
 73
15
 74
13
 40
0.000000
 40
0.000000
 40
0.000000
 40
0.000000
 40
0.099442
 40
0.181100
 40
0.248435
 40
0.309004
 40
0.373883
 40
0.449508
 40
0.521842
 40
0.581149
 40
0.633972
 40
0.700923
 40
0.801238
 40
0.937709
 40
0.937709
 40
0.937709
 40
0.937709
 10
34.524267
 20
175.829509
 30
0.0
 10
34.522659
 20
175.796338
 30
0.0
 10
34.519731
 20
175.735930
 30
0.0
 10
34.500457
 20
175.654906
 30
0.0
 10
34.468967
 20
175.591228
 30
0.0
 10
34.419519
 20
175.547686
 30
0.0
 10
34.355686
 20
175.523727
 30
0.0
 10
34.284478
 20
175.517712
 30
0.0
 10
34.215175
 20
175.523161
 30
0.0
 10
34.156286
 20
175.544406
 30
0.0
 10
34.111006
 20
175.586545
 30
0.0
 10
34.087869
 20
175.658178
 30
0.0
 10
34.074714
 20
175.758355
 30
0.0
 10
34.073514
 20
175.837413
 30
0.0
 10
34.072822
 20
175.882978
 30
0.0
 11
34.524267
 21
175.829509
 31
0.0
 11
34.516090
 21
175.730403
 31
0.0
 11
34.496093
 21
175.651232
 31
0.0
 11
34.464185
 21
175.591937
 31
0.0
 11
34.418842
 21
175.551780
 31
0.0
 11
34.358585
 21
175.527730
 31
0.0
 11
34.283385
 21
175.519727
 31
0.0
 11
34.211421
 21
175.527036
 31
0.0
 11
34.156299
 21
175.548921
 31
0.0
 11
34.118019
 21
175.585322
 31
0.0
 11
34.093033
 21
175.647435
 31
0.0
 11
34.077905
 21
175.746603
 31
0.0
 11
34.072822
 21
175.882978
 31
0.0
  0
LWPOLYLINE
  5
11b
100
AcDbEntity
  8
Calque_1
 62
7
100
AcDbPolyline
 90
2
 70
0
 10
41.293742
 20
177.786325
 30
0.0
 10
41.614547
 20
177.786325
 30
0.0
  0
SPLINE
  5
11c
100
AcDbEntity
  8
Calque_1
 62
7
100
AcDbSpline
 70
0
 71
3
 72
19
 73
15
 74
13
 40
0.000000
 40
0.000000
 40
0.000000
 40
0.000000
 40
0.310703
 40
0.584077
 40
0.841605
 40
1.103800
 40
1.390050
 40
1.719398
 40
2.049262
 40
2.337045
 40
2.601516
 40
2.860032
 40
3.133117
 40
3.442793
 40
3.442793
 40
3.442793
 40
3.442793
 10
41.614547
 20
177.786325
 30
0.0
 10
41.718426
 20
177.781297
 30
0.0
 10
41.913702
 20
177.771845
 30
0.0
 10
42.182274
 20
177.675564
 30
0.0
 10
42.396095
 20
177.512842
 30
0.0
 10
42.548708
 20
177.286231
 30
0.0
 10
42.635932
 20
177.003483
 30
0.0
 10
42.659716
 20
176.687578
 30
0.0
 10
42.635658
 20
176.371170
 30
0.0
 10
42.547482
 20
176.087148
 30
0.0
 10
42.393980
 20
175.859412
 30
0.0
 10
42.180998
 20
175.694165
 30
0.0
 10
41.912938
 20
175.596231
 30
0.0
 10
41.718089
 20
175.586588
 30
0.0
 10
41.614547
 20
175.581464
 30
0.0
 11
41.614547
 21
177.786325
 31
0.0
 11
41.923668
 21
177.755007
 31
0.0
 11
42.180361
 21
177.660973
 31
0.0
 11
42.384596
 21
177.504102
 31
0.0
 11
42.532873
 21
177.287862
 31
0.0
 11
42.621772
 21
177.015766
 31
0.0
 11
42.651384
 21
176.687752
 31
0.0
 11
42.621455
 21
176.359248
 31
0.0
 11
42.531750
 21
176.085804
 31
0.0
 11
42.382392
 21
175.867544
 31
0.0
 11
42.178473
 21
175.708650
 31
0.0
 11
41.922586
 21
175.613270
 31
0.0
 11
41.614547
 21
175.581464
 31
0.0
  0
LWPOLYLINE
  5
11d
100
AcDbEntity
  8
Calque_1
 62
7
100
AcDbPolyline
 90
4
 70
0
 10
41.614547
 20
175.581464
 30
0.0
 10
41.293742
 20
175.581464
 30
0.0
 10
41.293742
 20
177.786325
 30
0.0
 10
41.293742
 20
177.786325
 30
0.0
  0
SPLINE
  5
11e
100
AcDbEntity
  8
Calque_1
 62
7
100
AcDbSpline
 70
0
 71
3
 72
25
 73
21
 74
19
 40
0.000000
 40
0.000000
 40
0.000000
 40
0.000000
 40
0.250627
 40
0.481949
 40
0.713385
 40
0.949958
 40
1.197340
 40
1.471813
 40
1.745696
 40
1.993591
 40
2.231567
 40
2.463001
 40
2.694323
 40
2.944950
 40
3.135402
 40
3.307957
 40
3.471758
 40
3.635390
 40
3.807190
 40
3.996171
 40
3.996171
 40
3.996171
 40
3.996171
 10
28.667603
 20
177.280309
 30
0.0
 10
28.583737
 20
177.275346
 30
0.0
 10
28.422466
 20
177.265804
 30
0.0
 10
28.198444
 20
177.172977
 30
0.0
 10
28.016369
 20
177.022913
 30
0.0
 10
27.878441
 20
176.824462
 30
0.0
 10
27.797318
 20
176.581829
 30
0.0
 10
27.774474
 20
176.315884
 30
0.0
 10
27.797373
 20
176.049734
 30
0.0
 10
27.878792
 20
175.806821
 30
0.0
 10
28.015761
 20
175.607080
 30
0.0
 10
28.198517
 20
175.456227
 30
0.0
 10
28.422412
 20
175.366013
 30
0.0
 10
28.647597
 20
175.342826
 30
0.0
 10
28.852469
 20
175.358936
 30
0.0
 10
29.022285
 20
175.409730
 30
0.0
 10
29.166573
 20
175.496979
 30
0.0
 10
29.282759
 20
175.618399
 30
0.0
 10
29.371366
 20
175.771435
 30
0.0
 10
29.403652
 20
175.887681
 30
0.0
 10
29.420563
 20
175.948573
 30
0.0
 11
28.667603
 21
177.280309
 31
0.0
 11
28.418690
 21
177.251043
 31
0.0
 11
28.204686
 21
177.163225
 31
0.0
 11
28.025438
 21
177.016826
 31
0.0
 11
27.890452
 21
176.822544
 31
0.0
 11
27.809393
 21
176.588819
 31
0.0
 11
27.782352
 21
176.315682
 31
0.0
 11
27.809393
 21
176.043136
 31
0.0
 11
27.890452
 21
175.808869
 31
0.0
 11
28.025438
 21
175.612881
 31
0.0
 11
28.204686
 21
175.466483
 31
0.0
 11
28.418690
 21
175.378666
 31
0.0
 11
28.667603
 21
175.349401
 31
0.0
 11
28.857293
 21
175.366417
 31
0.0
 11
29.022118
 21
175.417486
 31
0.0
 11
29.162045
 21
175.502639
 31
0.0
 11
29.275768
 21
175.620293
 31
0.0
 11
29.361961
 21
175.768907
 31
0.0
 11
29.420563
 21
175.948573
 31
0.0
  0
LWPOLYLINE
  5
11f
100
AcDbEntity
  8
Calque_1
 62
7
100
AcDbPolyline
 90
2
 70
0
 10
29.420563
 20
175.948573
 30
0.0
 10
29.165352
 20
175.948573
 30
0.0
  0
SPLINE
  5
120
100
AcDbEntity
  8
Calque_1
 62
7
100
AcDbSpline
 70
0
 71
3
 72
31
 73
27
 74
25
 40
0.000000
 40
0.000000
 40
0.000000
 40
0.000000
 40
0.136945
 40
0.257799
 40
0.368423
 40
0.476872
 40
0.591712
 40
0.719771
 40
0.879369
 40
1.025109
 40
1.175407
 40
1.346319
 40
1.549774
 40
1.792608
 40
2.035135
 40
2.237917
 40
2.408247
 40
2.558428
 40
2.703687
 40
2.862354
 40
3.001779
 40
3.123121
 40
3.233798
 40
3.347408
 40
3.475726
 40
3.625697
 40
3.625697
 40
3.625697
 40
3.625697
 10
29.165352
 20
175.948573
 30
0.0
 10
29.154296
 20
175.904164
 30
0.0
 10
29.133483
 20
175.820565
 30
0.0
 10
29.076975
 20
175.710160
 30
0.0
 10
29.002378
 20
175.623220
 30
0.0
 10
28.907776
 20
175.561715
 30
0.0
 10
28.794830
 20
175.526361
 30
0.0
 10
28.660520
 20
175.515050
 30
0.0
 10
28.514883
 20
175.531689
 30
0.0
 10
28.376129
 20
175.601813
 30
0.0
 10
28.270632
 20
175.720652
 30
0.0
 10
28.200329
 20
175.882983
 30
0.0
 10
28.159902
 20
176.085718
 30
0.0
 10
28.148859
 20
176.315590
 30
0.0
 10
28.160001
 20
176.545180
 30
0.0
 10
28.200725
 20
176.747488
 30
0.0
 10
28.272742
 20
176.908457
 30
0.0
 10
28.377456
 20
177.027223
 30
0.0
 10
28.515679
 20
177.097515
 30
0.0
 10
28.664653
 20
177.114169
 30
0.0
 10
28.804556
 20
177.102807
 30
0.0
 10
28.924510
 20
177.067159
 30
0.0
 10
29.022434
 20
177.002937
 30
0.0
 10
29.096658
 20
176.909693
 30
0.0
 10
29.149457
 20
176.788695
 30
0.0
 10
29.166592
 20
176.697310
 30
0.0
 10
29.175826
 20
176.648063
 30
0.0
 11
29.165352
 21
175.948573
 31
0.0
 11
29.126899
 21
175.817138
 31
0.0
 11
29.071237
 21
175.709865
 31
0.0
 11
28.998333
 21
175.626661
 31
0.0
 11
28.907577
 21
175.567294
 31
0.0
 11
28.798416
 21
175.531629
 31
0.0
 11
28.670910
 21
175.519727
 31
0.0
 11
28.512855
 21
175.541857
 31
0.0
 11
28.383156
 21
175.608329
 31
0.0
 11
28.281754
 21
175.719267
 31
0.0
 11
28.210034
 21
175.874403
 31
0.0
 11
28.167070
 21
176.073269
 31
0.0
 11
28.152769
 21
176.315682
 31
0.0
 11
28.167243
 21
176.557777
 31
0.0
 11
28.210749
 21
176.755837
 31
0.0
 11
28.283408
 21
176.909892
 31
0.0
 11
28.384637
 21
177.020828
 31
0.0
 11
28.513794
 21
177.087301
 31
0.0
 11
28.670910
 21
177.109432
 31
0.0
 11
28.809797
 21
177.097182
 31
0.0
 11
28.925440
 21
177.060434
 31
0.0
 11
29.017626
 21
176.999187
 31
0.0
 11
29.089519
 21
176.911219
 31
0.0
 11
29.142211
 21
176.794218
 31
0.0
 11
29.175826
 21
176.648063
 31
0.0
  0
LWPOLYLINE
  5
121
100
AcDbEntity
  8
Calque_1
 62
7
100
AcDbPolyline
 90
3
 70
0
 10
29.175826
 20
176.648063
 30
0.0
 10
29.359931
 20
176.648063
 30
0.0
 10
29.359931
 20
177.116597
 30
0.0
  0
SPLINE
  5
122
100
AcDbEntity
  8
Calque_1
 62
7
100
AcDbSpline
 70
0
 71
3
 72
13
 73
9
 74
7
 40
0.000000
 40
0.000000
 40
0.000000
 40
0.000000
 40
0.126252
 40
0.248631
 40
0.367801
 40
0.485082
 40
0.601280
 40
0.717148
 40
0.717148
 40
0.717148
 40
0.717148
 10
29.359931
 20
177.116597
 30
0.0
 10
29.321575
 20
177.133952
 30
0.0
 10
29.246041
 20
177.168129
 30
0.0
 10
29.130234
 20
177.208880
 30
0.0
 10
29.014670
 20
177.240053
 30
0.0
 10
28.899373
 20
177.263344
 30
0.0
 10
28.783608
 20
177.277634
 30
0.0
 10
28.706234
 20
177.279418
 30
0.0
 10
28.667603
 20
177.280309
 30
0.0
 11
29.359931
 21
177.116597
 31
0.0
 11
29.244155
 21
177.166952
 31
0.0
 11
29.128778
 21
177.207752
 31
0.0
 11
29.013768
 21
177.238966
 31
0.0
 11
28.898758
 21
177.261934
 31
0.0
 11
28.783380
 21
177.275715
 31
0.0
 11
28.667603
 21
177.280309
 31
0.0
  0
LWPOLYLINE
  5
123
100
AcDbEntity
  8
Calque_1
 62
7
100
AcDbPolyline
 90
2
 70
0
 10
28.667603
 20
177.280309
 30
0.0
 10
28.667603
 20
177.280309
 30
0.0
  0
SPLINE
  5
124
100
AcDbEntity
  8
Calque_1
 62
7
100
AcDbSpline
 70
0
 71
3
 72
13
 73
9
 74
7
 40
0.000000
 40
0.000000
 40
0.000000
 40
0.000000
 40
0.099781
 40
0.202104
 40
0.307573
 40
0.415482
 40
0.527844
 40
0.645115
 40
0.645115
 40
0.645115
 40
0.645115
 10
30.526301
 20
177.280309
 30
0.0
 10
30.493034
 20
177.279498
 30
0.0
 10
30.425652
 20
177.277857
 30
0.0
 10
30.323757
 20
177.265108
 30
0.0
 10
30.220460
 20
177.244752
 30
0.0
 10
30.115260
 20
177.217616
 30
0.0
 10
30.008262
 20
177.182473
 30
0.0
 10
29.937408
 20
177.153463
 30
0.0
 10
29.901224
 20
177.138647
 30
0.0
 11
30.526301
 21
177.280309
 31
0.0
 11
30.426603
 21
177.276236
 31
0.0
 11
30.325006
 21
177.264078
 31
0.0
 11
30.221479
 21
177.243927
 31
0.0
 11
30.117014
 21
177.216887
 31
0.0
 11
30.010282
 21
177.181763
 31
0.0
 11
29.901224
 21
177.138647
 31
0.0
  0
LWPOLYLINE
  5
125
100
AcDbEntity
  8
Calque_1
 62
7
100
AcDbPolyline
 90
3
 70
0
 10
29.901224
 20
177.138647
 30
0.0
 10
29.901224
 20
176.768781
 30
0.0
 10
30.064936
 20
176.768781
 30
0.0
  0
SPLINE
  5
126
100
AcDbEntity
  8
Calque_1
 62
7
100
AcDbSpline
 70
0
 71
3
 72
19
 73
15
 74
13
 40
0.000000
 40
0.000000
 40
0.000000
 40
0.000000
 40
0.106940
 40
0.203681
 40
0.296869
 40
0.392893
 40
0.497410
 40
0.615521
 40
0.757239
 40
0.881399
 40
0.996153
 40
1.107830
 40
1.223285
 40
1.352448
 40
1.352448
 40
1.352448
 40
1.352448
 10
30.064936
 20
176.768781
 30
0.0
 10
30.072463
 20
176.803773
 30
0.0
 10
30.086800
 20
176.870420
 30
0.0
 10
30.134934
 20
176.958597
 30
0.0
 10
30.202391
 20
177.027607
 30
0.0
 10
30.288775
 20
177.076215
 30
0.0
 10
30.392120
 20
177.104308
 30
0.0
 10
30.513782
 20
177.112576
 30
0.0
 10
30.642067
 20
177.102630
 30
0.0
 10
30.764780
 20
177.064989
 30
0.0
 10
30.863245
 20
176.998982
 30
0.0
 10
30.937106
 20
176.910076
 30
0.0
 10
30.981451
 20
176.797335
 30
0.0
 10
30.985881
 20
176.715518
 30
0.0
 10
30.988220
 20
176.672317
 30
0.0
 11
30.064936
 21
176.768781
 31
0.0
 11
30.092669
 21
176.872062
 31
0.0
 11
30.139145
 21
176.956908
 31
0.0
 11
30.204393
 21
177.023441
 31
0.0
 11
30.287667
 21
177.071254
 31
0.0
 11
30.388182
 21
177.099897
 31
0.0
 11
30.505908
 21
177.109432
 31
0.0
 11
30.647050
 21
177.096662
 31
0.0
 11
30.765132
 21
177.058291
 31
0.0
 11
30.860340
 21
176.994228
 31
0.0
 11
30.931261
 21
176.907962
 31
0.0
 11
30.973950
 21
176.800689
 31
0.0
 11
30.988220
 21
176.672317
 31
0.0
  0
LWPOLYLINE
  5
127
100
AcDbEntity
  8
Calque_1
 62
7
100
AcDbPolyline
 90
3
 70
0
 10
30.988220
 20
176.672317
 30
0.0
 10
30.988220
 20
176.546091
 30
0.0
 10
30.543390
 20
176.546091
 30
0.0
  0
SPLINE
  5
128
100
AcDbEntity
  8
Calque_1
 62
7
100
AcDbSpline
 70
0
 71
3
 72
25
 73
21
 74
19
 40
0.000000
 40
0.000000
 40
0.000000
 40
0.000000
 40
0.231092
 40
0.430942
 40
0.609063
 40
0.773544
 40
0.935653
 40
1.112445
 40
1.284741
 40
1.442396
 40
1.598770
 40
1.759712
 40
1.930003
 40
2.120260
 40
2.238100
 40
2.347221
 40
2.449807
 40
2.550161
 40
2.652631
 40
2.759657
 40
2.759657
 40
2.759657
 40
2.759657
 10
30.543390
 20
176.546091
 30
0.0
 10
30.466239
 20
176.543314
 30
0.0
 10
30.322367
 20
176.538137
 30
0.0
 10
30.124015
 20
176.486416
 30
0.0
 10
29.963204
 20
176.399309
 30
0.0
 10
29.843306
 20
176.276986
 30
0.0
 10
29.772181
 20
176.121372
 30
0.0
 10
29.753355
 20
175.950013
 30
0.0
 10
29.770764
 20
175.780524
 30
0.0
 10
29.831796
 20
175.627611
 30
0.0
 10
29.934756
 20
175.504151
 30
0.0
 10
30.071718
 20
175.412648
 30
0.0
 10
30.239148
 20
175.359177
 30
0.0
 10
30.399122
 20
175.346170
 30
0.0
 10
30.538240
 20
175.353290
 30
0.0
 10
30.646674
 20
175.372958
 30
0.0
 10
30.745619
 20
175.406536
 30
0.0
 10
30.835428
 20
175.455340
 30
0.0
 10
30.917896
 20
175.518536
 30
0.0
 10
30.964442
 20
175.570766
 30
0.0
 10
30.988220
 20
175.597449
 30
0.0
 11
30.543390
 21
176.546091
 31
0.0
 11
30.312951
 21
176.528727
 31
0.0
 11
30.120026
 21
176.476576
 31
0.0
 11
29.964614
 21
176.389545
 31
0.0
 11
29.850717
 21
176.270880
 31
0.0
 11
29.782357
 21
176.123889
 31
0.0
 11
29.759563
 21
175.948573
 31
0.0
 11
29.779467
 21
175.777430
 31
0.0
 11
29.839181
 21
175.631521
 31
0.0
 11
29.938706
 21
175.510908
 31
0.0
 11
30.072233
 21
175.421059
 31
0.0
 11
30.233811
 21
175.367285
 31
0.0
 11
30.423225
 21
175.349401
 31
0.0
 11
30.540878
 21
175.356046
 31
0.0
 11
30.648151
 21
175.376043
 31
0.0
 11
30.745134
 21
175.409483
 31
0.0
 11
30.833420
 21
175.457194
 31
0.0
 11
30.914480
 21
175.519880
 31
0.0
 11
30.988220
 21
175.597449
 31
0.0
  0
LWPOLYLINE
  5
129
100
AcDbEntity
  8
Calque_1
 62
7
100
AcDbPolyline
 90
6
 70
0
 10
30.988220
 20
175.597449
 30
0.0
 10
30.988220
 20
175.399010
 30
0.0
 10
31.587392
 20
175.399010
 30
0.0
 10
31.587392
 20
175.581464
 30
0.0
 10
31.305170
 20
175.581464
 30
0.0
 10
31.305170
 20
176.542783
 30
0.0
  0
SPLINE
  5
12a
100
AcDbEntity
  8
Calque_1
 62
7
100
AcDbSpline
 70
0
 71
3
 72
13
 73
9
 74
7
 40
0.000000
 40
0.000000
 40
0.000000
 40
0.000000
 40
0.222024
 40
0.416490
 40
0.598630
 40
0.783830
 40
0.986852
 40
1.221303
 40
1.221303
 40
1.221303
 40
1.221303
 10
31.305170
 20
176.542783
 30
0.0
 10
31.301597
 20
176.617003
 30
0.0
 10
31.294895
 20
176.756230
 30
0.0
 10
31.226820
 20
176.947467
 30
0.0
 10
31.111125
 20
177.098618
 30
0.0
 10
30.951491
 20
177.207196
 30
0.0
 10
30.750777
 20
177.270679
 30
0.0
 10
30.604627
 20
177.276949
 30
0.0
 10
30.526301
 20
177.280309
 30
0.0
 11
31.305170
 21
176.542783
 31
0.0
 11
31.282897
 21
176.763687
 31
0.0
 11
31.216158
 21
176.946343
 31
0.0
 11
31.105077
 21
177.090689
 31
0.0
 11
30.952728
 21
177.195992
 31
0.0
 11
30.759802
 21
177.259219
 31
0.0
 11
30.526301
 21
177.280309
 31
0.0
  0
LWPOLYLINE
  5
12b
100
AcDbEntity
  8
Calque_1
 62
7
100
AcDbPolyline
 90
2
 70
0
 10
30.526301
 20
177.280309
 30
0.0
 10
30.526301
 20
177.280309
 30
0.0
  0
SPLINE
  5
12c
100
AcDbEntity
  8
Calque_1
 62
7
100
AcDbSpline
 70
0
 71
3
 72
13
 73
9
 74
7
 40
0.000000
 40
0.000000
 40
0.000000
 40
0.000000
 40
0.133440
 40
0.256322
 40
0.373106
 40
0.489769
 40
0.613416
 40
0.748274
 40
0.748274
 40
0.748274
 40
0.748274
 10
33.029370
 20
177.280309
 30
0.0
 10
32.984825
 20
177.278507
 30
0.0
 10
32.899259
 20
177.275046
 30
0.0
 10
32.777923
 20
177.243338
 30
0.0
 10
32.670552
 20
177.190692
 30
0.0
 10
32.576511
 20
177.116408
 30
0.0
 10
32.495050
 20
177.020186
 30
0.0
 10
32.454244
 20
176.944082
 30
0.0
 10
32.432955
 20
176.904380
 30
0.0
 11
33.029370
 21
177.280309
 31
0.0
 11
32.896333
 21
177.269938
 31
0.0
 11
32.777445
 21
177.238866
 31
0.0
 11
32.672734
 21
177.187153
 31
0.0
 11
32.580968
 21
177.115117
 31
0.0
 11
32.500990
 21
177.020819
 31
0.0
 11
32.432955
 21
176.904380
 31
0.0
  0
LWPOLYLINE
  5
12d
100
AcDbEntity
  8
Calque_1
 62
7
100
AcDbPolyline
 90
12
 70
0
 10
32.432955
 20
176.904380
 30
0.0
 10
32.432955
 20
177.230147
 30
0.0
 10
31.812840
 20
177.230147
 30
0.0
 10
31.812840
 20
177.049349
 30
0.0
 10
32.116008
 20
177.049349
 30
0.0
 10
32.116008
 20
175.581464
 30
0.0
 10
31.830478
 20
175.581464
 30
0.0
 10
31.830478
 20
175.399010
 30
0.0
 10
32.800064
 20
175.399010
 30
0.0
 10
32.800064
 20
175.581464
 30
0.0
 10
32.432955
 20
175.581464
 30
0.0
 10
32.432955
 20
176.418758
 30
0.0
  0
SPLINE
  5
12e
100
AcDbEntity
  8
Calque_1
 62
7
100
AcDbSpline
 70
0
 71
3
 72
19
 73
15
 74
13
 40
0.000000
 40
0.000000
 40
0.000000
 40
0.000000
 40
0.186963
 40
0.347474
 40
0.489049
 40
0.620641
 40
0.752464
 40
0.897832
 40
0.977385
 40
1.046515
 40
1.110241
 40
1.175153
 40
1.247480
 40
1.331468
 40
1.331468
 40
1.331468
 40
1.331468
 10
32.432955
 20
176.418758
 30
0.0
 10
32.435136
 20
176.481180
 30
0.0
 10
32.439189
 20
176.597193
 30
0.0
 10
32.480080
 20
176.756522
 30
0.0
 10
32.548955
 20
176.885690
 30
0.0
 10
32.648821
 20
176.980484
 30
0.0
 10
32.775909
 20
177.036027
 30
0.0
 10
32.895528
 20
177.049381
 30
0.0
 10
32.993745
 20
177.042227
 30
0.0
 10
33.061940
 20
177.020024
 30
0.0
 10
33.116586
 20
176.981065
 30
0.0
 10
33.155872
 20
176.925531
 30
0.0
 10
33.181038
 20
176.855297
 30
0.0
 10
33.186363
 20
176.803322
 30
0.0
 10
33.189223
 20
176.775396
 30
0.0
 11
32.432955
 21
176.418758
 31
0.0
 11
32.446735
 21
176.605212
 31
0.0
 11
32.488077
 21
176.760307
 31
0.0
 11
32.556981
 21
176.883984
 31
0.0
 11
32.652991
 21
176.973975
 31
0.0
 11
32.773228
 21
177.028015
 31
0.0
 11
32.917474
 21
177.046042
 31
0.0
 11
32.996675
 21
177.038559
 31
0.0
 11
33.062066
 21
177.016133
 31
0.0
 11
33.113706
 21
176.978794
 31
0.0
 11
33.151913
 21
176.926316
 31
0.0
 11
33.177045
 21
176.858497
 31
0.0
 11
33.189223
 21
176.775396
 31
0.0
  0
LWPOLYLINE
  5
12f
100
AcDbEntity
  8
Calque_1
 62
7
100
AcDbPolyline
 90
3
 70
0
 10
33.189223
 20
176.775396
 30
0.0
 10
33.372227
 20
176.775396
 30
0.0
 10
33.372227
 20
177.233454
 30
0.0
  0
SPLINE
  5
130
100
AcDbEntity
  8
Calque_1
 62
7
100
AcDbSpline
 70
0
 71
3
 72
13
 73
9
 74
7
 40
0.000000
 40
0.000000
 40
0.000000
 40
0.000000
 40
0.063850
 40
0.125476
 40
0.184704
 40
0.240507
 40
0.294434
 40
0.346787
 40
0.346787
 40
0.346787
 40
0.346787
 10
33.372227
 20
177.233454
 30
0.0
 10
33.351478
 20
177.238198
 30
0.0
 10
33.310702
 20
177.247519
 30
0.0
 10
33.250218
 20
177.259094
 30
0.0
 10
33.192056
 20
177.268362
 30
0.0
 10
33.136146
 20
177.275230
 30
0.0
 10
33.082252
 20
177.279486
 30
0.0
 10
33.046822
 20
177.280037
 30
0.0
 10
33.029370
 20
177.280309
 30
0.0
 11
33.372227
 21
177.233454
 31
0.0
 11
33.309899
 21
177.247307
 31
0.0
 11
33.249377
 21
177.258924
 31
0.0
 11
33.190877
 21
177.268182
 31
0.0
 11
33.135480
 21
177.274898
 31
0.0
 11
33.081706
 21
177.278951
 31
0.0
 11
33.029370
 21
177.280309
 31
0.0
  0
LWPOLYLINE
  5
131
100
AcDbEntity
  8
Calque_1
 62
7
100
AcDbPolyline
 90
2
 70
0
 10
33.029370
 20
177.280309
 30
0.0
 10
33.029370
 20
177.280309
 30
0.0
  0
SPLINE
  5
132
100
AcDbEntity
  8
Calque_1
 62
7
100
AcDbSpline
 70
0
 71
3
 72
25
 73
21
 74
19
 40
0.000000
 40
0.000000
 40
0.000000
 40
0.000000
 40
0.244586
 40
0.471977
 40
0.701741
 40
0.938252
 40
1.184519
 40
1.456357
 40
1.730241
 40
1.978135
 40
2.216111
 40
2.448519
 40
2.681088
 40
2.932965
 40
3.140946
 40
3.326559
 40
3.498475
 40
3.668094
 40
3.845506
 40
4.040770
 40
4.040770
 40
4.040770
 40
4.040770
 10
35.836710
 20
177.280309
 30
0.0
 10
35.754843
 20
177.275248
 30
0.0
 10
35.596864
 20
177.265482
 30
0.0
 10
35.377545
 20
177.171237
 30
0.0
 10
35.198918
 20
177.020104
 30
0.0
 10
35.063705
 20
176.821107
 30
0.0
 10
34.983424
 20
176.579700
 30
0.0
 10
34.960702
 20
176.315006
 30
0.0
 10
34.983565
 20
176.049719
 30
0.0
 10
35.065025
 20
175.806873
 30
0.0
 10
35.201987
 20
175.606623
 30
0.0
 10
35.386134
 20
175.456245
 30
0.0
 10
35.611207
 20
175.365861
 30
0.0
 10
35.843130
 20
175.342875
 30
0.0
 10
36.058504
 20
175.358798
 30
0.0
 10
36.241985
 20
175.408222
 30
0.0
 10
36.397311
 20
175.494517
 30
0.0
 10
36.522921
 20
175.616002
 30
0.0
 10
36.619187
 20
175.771669
 30
0.0
 10
36.655159
 20
175.891007
 30
0.0
 10
36.674007
 20
175.953534
 30
0.0
 11
35.836710
 21
177.280309
 31
0.0
 11
35.593920
 21
177.250727
 31
0.0
 11
35.384510
 21
177.162103
 31
0.0
 11
35.208326
 21
177.014622
 31
0.0
 11
35.075216
 21
176.819124
 31
0.0
 11
34.995240
 21
176.586205
 31
0.0
 11
34.968547
 21
176.315682
 31
0.0
 11
34.995586
 21
176.043136
 31
0.0
 11
35.076645
 21
175.808869
 31
0.0
 11
35.211631
 21
175.612881
 31
0.0
 11
35.392134
 21
175.466483
 31
0.0
 11
35.607486
 21
175.378666
 31
0.0
 11
35.857657
 21
175.349401
 31
0.0
 11
36.064955
 21
175.366244
 31
0.0
 11
36.243558
 21
175.416772
 31
0.0
 11
36.393436
 21
175.500985
 31
0.0
 11
36.515685
 21
175.618567
 31
0.0
 11
36.609178
 21
175.769346
 31
0.0
 11
36.674007
 21
175.953534
 31
0.0
  0
LWPOLYLINE
  5
133
100
AcDbEntity
  8
Calque_1
 62
7
100
AcDbPolyline
 90
2
 70
0
 10
36.674007
 20
175.953534
 30
0.0
 10
36.419344
 20
175.953534
 30
0.0
  0
SPLINE
  5
134
100
AcDbEntity
  8
Calque_1
 62
7
100
AcDbSpline
 70
0
 71
3
 72
19
 73
15
 74
13
 40
0.000000
 40
0.000000
 40
0.000000
 40
0.000000
 40
0.139140
 40
0.264321
 40
0.381539
 40
0.495658
 40
0.615035
 40
0.746159
 40
0.914187
 40
1.065086
 40
1.215108
 40
1.380690
 40
1.572839
 40
1.800079
 40
1.800079
 40
1.800079
 40
1.800079
 10
36.419344
 20
175.953534
 30
0.0
 10
36.406269
 20
175.908899
 30
0.0
 10
36.381431
 20
175.824108
 30
0.0
 10
36.317328
 20
175.712768
 30
0.0
 10
36.235485
 20
175.625013
 30
0.0
 10
36.134943
 20
175.562691
 30
0.0
 10
36.017656
 20
175.526552
 30
0.0
 10
35.877947
 20
175.515131
 30
0.0
 10
35.727019
 20
175.530954
 30
0.0
 10
35.581310
 20
175.595576
 30
0.0
 10
35.468149
 20
175.706906
 30
0.0
 10
35.391242
 20
175.860105
 30
0.0
 10
35.345822
 20
176.051322
 30
0.0
 10
35.341374
 20
176.191318
 30
0.0
 10
35.338964
 20
176.267173
 30
0.0
 11
36.419344
 21
175.953534
 31
0.0
 11
36.374696
 21
175.821752
 31
0.0
 11
36.312011
 21
175.713397
 31
0.0
 11
36.231381
 21
175.628315
 31
0.0
 11
36.134499
 21
175.568008
 31
0.0
 11
36.020744
 21
175.531803
 31
0.0
 11
35.890177
 21
175.519727
 31
0.0
 11
35.723456
 21
175.540643
 31
0.0
 11
35.586194
 21
175.603328
 31
0.0
 11
35.478421
 21
175.707690
 31
0.0
 11
35.400924
 21
175.854018
 31
0.0
 11
35.354449
 21
176.040461
 31
0.0
 11
35.338964
 21
176.267173
 31
0.0
  0
LWPOLYLINE
  5
135
100
AcDbEntity
  8
Calque_1
 62
7
100
AcDbPolyline
 90
3
 70
0
 10
35.338964
 20
176.267173
 30
0.0
 10
35.338964
 20
176.280954
 30
0.0
 10
36.704874
 20
176.280954
 30
0.0
  0
SPLINE
  5
136
100
AcDbEntity
  8
Calque_1
 62
7
100
AcDbSpline
 70
0
 71
3
 72
13
 73
9
 74
7
 40
0.000000
 40
0.000000
 40
0.000000
 40
0.000000
 40
0.300605
 40
0.559736
 40
0.791670
 40
1.013343
 40
1.242591
 40
1.499611
 40
1.499611
 40
1.499611
 40
1.499611
 10
36.704874
 20
176.280954
 30
0.0
 10
36.699275
 20
176.381255
 30
0.0
 10
36.688850
 20
176.568017
 30
0.0
 10
36.612462
 20
176.823663
 30
0.0
 10
36.485976
 20
177.028708
 30
0.0
 10
36.308997
 20
177.177830
 30
0.0
 10
36.085386
 20
177.266869
 30
0.0
 10
35.922700
 20
177.275661
 30
0.0
 10
35.836710
 20
177.280309
 30
0.0
 11
36.704874
 21
176.280954
 31
0.0
 11
36.675507
 21
176.580121
 31
0.0
 11
36.598766
 21
176.827628
 31
0.0
 11
36.474465
 21
177.023441
 31
0.0
 11
36.304783
 21
177.166084
 31
0.0
 11
36.092137
 21
177.251737
 31
0.0
 11
35.836710
 21
177.280309
 31
0.0
  0
LWPOLYLINE
  5
137
100
AcDbEntity
  8
Calque_1
 62
7
100
AcDbPolyline
 90
2
 70
0
 10
35.836710
 20
177.280309
 30
0.0
 10
35.836710
 20
177.280309
 30
0.0
  0
SPLINE
  5
138
100
AcDbEntity
  8
Calque_1
 62
7
100
AcDbSpline
 70
0
 71
3
 72
13
 73
9
 74
7
 40
0.000000
 40
0.000000
 40
0.000000
 40
0.000000
 40
0.145074
 40
0.276385
 40
0.407840
 40
0.552092
 40
0.719148
 40
0.916125
 40
0.916125
 40
0.916125
 40
0.916125
 10
35.836710
 20
177.109432
 30
0.0
 10
35.885298
 20
177.106444
 30
0.0
 10
35.977865
 20
177.100753
 30
0.0
 10
36.104625
 20
177.042876
 30
0.0
 10
36.203144
 20
176.946378
 30
0.0
 10
36.274665
 20
176.815328
 30
0.0
 10
36.319085
 20
176.650343
 30
0.0
 10
36.326914
 20
176.529043
 30
0.0
 10
36.331150
 20
176.463408
 30
0.0
 11
35.836710
 21
177.109432
 31
0.0
 11
35.980638
 21
177.091231
 31
0.0
 11
36.100068
 21
177.036651
 31
0.0
 11
36.195000
 21
176.945720
 31
0.0
 11
36.266026
 21
176.820165
 31
0.0
 11
36.311419
 21
176.659394
 31
0.0
 11
36.331150
 21
176.463408
 31
0.0
  0
LWPOLYLINE
  5
139
100
AcDbEntity
  8
Calque_1
 62
7
100
AcDbPolyline
 90
2
 70
0
 10
36.331150
 20
176.463408
 30
0.0
 10
35.338964
 20
176.463408
 30
0.0
  0
LWPOLYLINE
  5
13a
100
AcDbEntity
  8
Calque_1
 62
7
100
AcDbPolyline
 90
2
 70
0
 10
35.836710
 20
177.109432
 30
0.0
 10
35.836710
 20
177.109432
 30
0.0
  0
SPLINE
  5
13b
100
AcDbEntity
  8
Calque_1
 62
7
100
AcDbSpline
 70
0
 71
3
 72
13
 73
9
 74
7
 40
0.000000
 40
0.000000
 40
0.000000
 40
0.000000
 40
0.197403
 40
0.366090
 40
0.511938
 40
0.642840
 40
0.769987
 40
0.906712
 40
0.906712
 40
0.906712
 40
0.906712
 10
35.338964
 20
176.463408
 30
0.0
 10
35.346589
 20
176.528872
 30
0.0
 10
35.360729
 20
176.650278
 30
0.0
 10
35.411236
 20
176.814418
 30
0.0
 10
35.483780
 20
176.945713
 30
0.0
 10
35.581022
 20
177.041652
 30
0.0
 10
35.702465
 20
177.100389
 30
0.0
 10
35.790892
 20
177.106345
 30
0.0
 10
35.836710
 20
177.109432
 30
0.0
 11
35.338964
 21
176.463408
 31
0.0
 11
35.368228
 21
176.658629
 31
0.0
 11
35.419298
 21
176.819401
 31
0.0
 11
35.492202
 21
176.945720
 31
0.0
 11
35.586366
 21
177.036651
 31
0.0
 11
35.701202
 21
177.091231
 31
0.0
 11
35.836710
 21
177.109432
 31
0.0
  0
LWPOLYLINE
  5
13c
100
AcDbEntity
  8
Calque_1
 62
7
100
AcDbPolyline
 90
3
 70
0
 10
30.579771
 20
176.361983
 30
0.0
 10
30.988220
 20
176.361983
 30
0.0
 10
30.988220
 20
175.974481
 30
0.0
  0
SPLINE
  5
13d
100
AcDbEntity
  8
Calque_1
 62
7
100
AcDbSpline
 70
0
 71
3
 72
25
 73
21
 74
19
 40
0.000000
 40
0.000000
 40
0.000000
 40
0.000000
 40
0.123419
 40
0.237178
 40
0.349753
 40
0.461720
 40
0.575479
 40
0.699659
 40
0.824302
 40
0.936339
 40
1.043504
 40
1.149370
 40
1.257754
 40
1.377137
 40
1.505869
 40
1.616747
 40
1.719130
 40
1.825694
 40
1.947727
 40
2.092166
 40
2.092166
 40
2.092166
 40
2.092166
 10
30.988220
 20
175.974481
 30
0.0
 10
30.985903
 20
175.933206
 30
0.0
 10
30.981449
 20
175.853886
 30
0.0
 10
30.938643
 20
175.743227
 30
0.0
 10
30.869524
 20
175.652586
 30
0.0
 10
30.779138
 20
175.582651
 30
0.0
 10
30.668352
 20
175.541140
 30
0.0
 10
30.547076
 20
175.529707
 30
0.0
 10
30.426474
 20
175.540376
 30
0.0
 10
30.316611
 20
175.577685
 30
0.0
 10
30.227058
 20
175.641365
 30
0.0
 10
30.159964
 20
175.726891
 30
0.0
 10
30.120063
 20
175.832453
 30
0.0
 10
30.109212
 20
175.951716
 30
0.0
 10
30.119499
 20
176.071710
 30
0.0
 10
30.157239
 20
176.181034
 30
0.0
 10
30.225015
 20
176.266333
 30
0.0
 10
30.321314
 20
176.323881
 30
0.0
 10
30.442553
 20
176.357027
 30
0.0
 10
30.531538
 20
176.360241
 30
0.0
 10
30.579771
 20
176.361983
 30
0.0
 11
30.988220
 21
175.974481
 31
0.0
 11
30.974614
 21
175.851814
 31
0.0
 11
30.933814
 21
175.745623
 31
0.0
 11
30.865851
 21
175.655877
 31
0.0
 11
30.776871
 21
175.587914
 31
0.0
 11
30.670680
 21
175.547114
 31
0.0
 11
30.547248
 21
175.533508
 31
0.0
 11
30.423225
 21
175.545931
 31
0.0
 11
30.317575
 21
175.583218
 31
0.0
 11
30.230298
 21
175.645404
 31
0.0
 11
30.165154
 21
175.728852
 31
0.0
 11
30.125977
 21
175.829908
 31
0.0
 11
30.112891
 21
175.948573
 31
0.0
 11
30.125661
 21
176.076669
 31
0.0
 11
30.164031
 21
176.180696
 31
0.0
 11
30.228094
 21
176.260561
 31
0.0
 11
30.318505
 21
176.316968
 31
0.0
 11
30.435771
 21
176.350745
 31
0.0
 11
30.579771
 21
176.361983
 31
0.0
  0
LWPOLYLINE
  5
13e
100
AcDbEntity
  8
Calque_1
 62
7
100
AcDbPolyline
 90
2
 70
0
 10
30.579771
 20
176.361983
 30
0.0
 10
30.579771
 20
176.361983
 30
0.0
  0
ENDSEC
  0
SECTION
  2
OBJECTS
  0
DICTIONARY
  5
C
330
0
100
AcDbDictionary
  3
ACAD_GROUP
350
D
  3
ACAD_MLINESTYLE
350
17
  0
DICTIONARY
  5
D
330
C
100
AcDbDictionary
  0
DICTIONARY
  5
1A
330
C
100
AcDbDictionary
  0
DICTIONARY
  5
17
330
C
100
AcDbDictionary
  3
STANDARD
350
18
  0
DICTIONARY
  5
19
330
C
100
AcDbDictionary
  0
ENDSEC
  0
EOF
