  0
SECTION
  2
HEADER
  9
$ACADVER
  1
AC1015
  9
$ACADMAINTVER
 70
     6
  9
$DWGCODEPAGE
  3
ANSI_1252
  9
$INSBASE
 10
0.0
 20
0.0
 30
0.0
  9
$EXTMIN
 10
0.0
 20
0.0
 30
0.0
  9
$EXTMAX
 10
1330.530273
 20
554.822876
 30
2.0
  9
$LIMMIN
 10
0.0
 20
0.0
  9
$LIMMAX
 10
420.0
 20
297.0
  9
$ORTHOMODE
 70
     0
  9
$REGENMODE
 70
     1
  9
$FILLMODE
 70
     1
  9
$QTEXTMODE
 70
     0
  9
$MIRRTEXT
 70
     1
  9
$LTSCALE
 40
1.0
  9
$ATTMODE
 70
     1
  9
$TEXTSIZE
 40
2.5
  9
$TRACEWID
 40
1.0
  9
$TEXTSTYLE
  7
Standard
  9
$CLAYER
  8
0
  9
$CELTYPE
  6
ByLayer
  9
$CECOLOR
 62
   256
  9
$CELTSCALE
 40
1.0
  9
$DISPSILH
 70
     0
  9
$DIMSCALE
 40
1.0
  9
$DIMASZ
 40
2.5
  9
$DIMEXO
 40
0.625
  9
$DIMDLI
 40
3.75
  9
$DIMRND
 40
0.0
  9
$DIMDLE
 40
0.0
  9
$DIMEXE
 40
1.25
  9
$DIMTP
 40
0.0
  9
$DIMTM
 40
0.0
  9
$DIMTXT
 40
2.5
  9
$DIMCEN
 40
2.5
  9
$DIMTSZ
 40
0.0
  9
$DIMTOL
 70
     0
  9
$DIMLIM
 70
     0
  9
$DIMTIH
 70
     0
  9
$DIMTOH
 70
     0
  9
$DIMSE1
 70
     0
  9
$DIMSE2
 70
     0
  9
$DIMTAD
 70
     1
  9
$DIMZIN
 70
     8
  9
$DIMBLK
  1

  9
$DIMASO
 70
     1
  9
$DIMSHO
 70
     1
  9
$DIMPOST
  1

  9
$DIMAPOST
  1

  9
$DIMALT
 70
     0
  9
$DIMALTD
 70
     3
  9
$DIMALTF
 40
0.03937
  9
$DIMLFAC
 40
1.0
  9
$DIMTOFL
 70
     1
  9
$DIMTVP
 40
0.0
  9
$DIMTIX
 70
     0
  9
$DIMSOXD
 70
     0
  9
$DIMSAH
 70
     0
  9
$DIMBLK1
  1

  9
$DIMBLK2
  1

  9
$DIMSTYLE
  2

  9
$DIMCLRD
 70
     0
  9
$DIMCLRE
 70
     0
  9
$DIMCLRT
 70
     0
  9
$DIMTFAC
 40
1.0
  9
$DIMGAP
 40
0.625
  9
$DIMJUST
 70
     0
  9
$DIMSD1
 70
     0
  9
$DIMSD2
 70
     0
  9
$DIMTOLJ
 70
     0
  9
$DIMTZIN
 70
     8
  9
$DIMALTZ
 70
     0
  9
$DIMALTTZ
 70
     0
  9
$DIMUPT
 70
     0
  9
$DIMDEC
 70
     2
  9
$DIMTDEC
 70
     2
  9
$DIMALTU
 70
     2
  9
$DIMALTTD
 70
     3
  9
$DIMTXSTY
  7
Standard
  9
$DIMAUNIT
 70
     0
  9
$DIMADEC
 70
     0
  9
$DIMALTRND
 40
0.0
  9
$DIMAZIN
 70
     0
  9
$DIMDSEP
 70
    44
  9
$DIMATFIT
 70
     0
  9
$DIMFRAC
 70
     0
  9
$DIMLDRBLK
  1

  9
$DIMLUNIT
 70
     2
  9
$DIMLWD
 70
    -2
  9
$DIMLWE
 70
    -2
  9
$DIMTMOVE
 70
     0
  9
$LUNITS
 70
     2
  9
$LUPREC
 70
     4
  9
$SKETCHINC
 40
1.0
  9
$FILLETRAD
 40
2.5
  9
$AUNITS
 70
     0
  9
$AUPREC
 70
     0
  9
$MENU
  1
.
  9
$ELEVATION
 40
0.0
  9
$PELEVATION
 40
0.0
  9
$THICKNESS
 40
0.0
  9
$LIMCHECK
 70
     0
  9
$CHAMFERA
 40
2.5
  9
$CHAMFERB
 40
2.5
  9
$CHAMFERC
 40
0.0
  9
$CHAMFERD
 40
0.0
  9
$SKPOLY
 70
     0
  9
$TDCREATE
 40
0.000000000
  9
$TDUCREATE
 40
0.000000000
  9
$TDUPDATE
 40
0.000000000
  9
$TDUUPDATE
 40
0.000000000
  9
$TDINDWG
 40
0.0000000000
  9
$TDUSRTIMER
 40
0.0000000000
  9
$USRTIMER
 70
     1
  9
$ANGBASE
 50
0.0
  9
$ANGDIR
 70
     0
  9
$PDMODE
 70
     0
  9
$PDSIZE
 40
0.0
  9
$PLINEWID
 40
0.0
  9
$SPLFRAME
 70
     0
  9
$SPLINETYPE
 70
     6
  9
$SPLINESEGS
 70
     8
  9
$HANDSEED
  5
64F
  9
$SURFTAB1
 70
     6
  9
$SURFTAB2
 70
     6
  9
$SURFTYPE
 70
     6
  9
$SURFU
 70
     6
  9
$SURFV
 70
     6
  9
$UCSBASE
  2

  9
$UCSNAME
  2

  9
$UCSORG
 10
0.0
 20
0.0
 30
0.0
  9
$UCSXDIR
 10
1.0
 20
0.0
 30
0.0
  9
$UCSYDIR
 10
0.0
 20
1.0
 30
0.0
  9
$UCSORTHOREF
  2

  9
$UCSORTHOVIEW
 70
     1
  9
$UCSORGTOP
 10
0.0
 20
0.0
 30
0.0
  9
$UCSORGBOTTOM
 10
0.0
 20
0.0
 30
0.0
  9
$UCSORGLEFT
 10
0.0
 20
0.0
 30
0.0
  9
$UCSORGRIGHT
 10
0.0
 20
0.0
 30
0.0
  9
$UCSORGFRONT
 10
0.0
 20
0.0
 30
0.0
  9
$UCSORGBACK
 10
0.0
 20
0.0
 30
0.0
  9
$PUCSBASE
  2

  9
$PUCSNAME
  2

  9
$PUCSORG
 10
0.0
 20
0.0
 30
0.0
  9
$PUCSXDIR
 10
1.0
 20
0.0
 30
0.0
  9
$PUCSYDIR
 10
0.0
 20
1.0
 30
0.0
  9
$PUCSORTHOREF
  2

  9
$PUCSORTHOVIEW
 70
     0
  9
$PUCSORGTOP
 10
0.0
 20
0.0
 30
0.0
  9
$PUCSORGBOTTOM
 10
0.0
 20
0.0
 30
0.0
  9
$PUCSORGLEFT
 10
0.0
 20
0.0
 30
0.0
  9
$PUCSORGRIGHT
 10
0.0
 20
0.0
 30
0.0
  9
$PUCSORGFRONT
 10
0.0
 20
0.0
 30
0.0
  9
$PUCSORGBACK
 10
0.0
 20
0.0
 30
0.0
  9
$USERI1
 70
     0
  9
$USERI2
 70
     0
  9
$USERI3
 70
     0
  9
$USERI4
 70
     0
  9
$USERI5
 70
     0
  9
$USERR1
 40
0.0
  9
$USERR2
 40
0.0
  9
$USERR3
 40
0.0
  9
$USERR4
 40
0.0
  9
$USERR5
 40
0.0
  9
$WORLDVIEW
 70
     1
  9
$SHADEDGE
 70
     3
  9
$SHADEDIF
 70
    70
  9
$TILEMODE
 70
     1
  9
$MAXACTVP
 70
    48
  9
$PINSBASE
 10
0.0
 20
0.0
 30
0.0
  9
$PLIMCHECK
 70
     0
  9
$PEXTMIN
 10
0.0
 20
0.0
 30
0.0
  9
$PEXTMAX
 10
1330.530273
 20
554.822876
 30
2.0
  9
$PLIMMIN
 10
0.0
 20
0.0
  9
$PLIMMAX
 10
420.0
 20
297.0
  9
$UNITMODE
 70
     0
  9
$VISRETAIN
 70
     0
  9
$PLINEGEN
 70
     0
  9
$PSLTSCALE
 70
     1
  9
$TREEDEPTH
 70
  3020
  9
$CMLSTYLE
  2
Standard
  9
$CMLJUST
 70
     0
  9
$CMLSCALE
 40
20.0
  9
$PROXYGRAPHICS
 70
     1
  9
$MEASUREMENT
 70
     1
  9
$CELWEIGHT
370
    -1
  9
$ENDCAPS
280
     0
  9
$JOINSTYLE
280
     0
  9
$LWDISPLAY
290
     0
  9
$INSUNITS
 70
     0
  9
$HYPERLINKBASE
  1

  9
$STYLESHEET
  1

  9
$XEDIT
290
     1
  9
$CEPSNTYPE
380
     0
  9
$PSTYLEMODE
290
     0
  9
$FINGERPRINTGUID
  2

  9
$VERSIONGUID
  2

  9
$EXTNAMES
290
     0
  9
$PSVPSCALE
 40
0.0
  0
ENDSEC
  0
SECTION
  2
CLASSES
  0
CLASS
  1
LWPOLYLINE
  2
AcDbPolyline
  3
AutoCAD 2000
 90
        0
280
     0
281
     1
  0
CLASS
  1
IMAGE
  2
AcDbRasterImage
  3
ISM
 90
      127
280
     0
281
     1
  0
CLASS
  1
OLE2FRAME
  2
AcDbOle2Frame
  3
AutoCAD 2000
 90
        0
280
     0
281
     1
  0
CLASS
  1
HATCH
  2
AcDbHatch
  3
AutoCAD 2000
 90
        0
280
     0
281
     1
  0
CLASS
  1
DICTIONARYVAR
  2
AcDbDictionaryVar
  3
AutoCAD 2000
 90
        0
280
     0
281
     0
  0
CLASS
  1
RASTERVARIABLES
  2
AcDbRasterVariables
  3
ISM
 90
        0
280
     0
281
     0
  0
CLASS
  1
IMAGEDEF
  2
AcDbRasterImageDef
  3
ISM
 90
        0
280
     0
281
     0
  0
CLASS
  1
IMAGEDEF_REACTOR
  2
AcDbRasterImageDefReactor
  3
ISM
 90
        1
280
     0
281
     0
  0
CLASS
  1
IDBUFFER
  2
AcDbIdBuffer
  3
AutoCAD 2000
 90
        0
280
     0
281
     0
  0
CLASS
  1
SPATIAL_FILTER
  2
AcDbSpatialFilter
  3
AutoCAD 2000
 90
        0
280
     0
281
     0
  0
CLASS
  1
XRECORD
  2
AcDbXrecord
  3
AutoCAD 2000
 90
        0
280
     0
281
     0
  0
CLASS
  1
SORTENTSTABLE
  2
AcDbSortentsTable
  3
AutoCAD 2000
 90
        0
280
     0
281
     0
  0
CLASS
  1
LAYER_INDEX
  2
AcDbLayerIndex
  3
AutoCAD 2000
 90
        0
280
     0
281
     0
  0
CLASS
  1
SPATIAL_INDEX
  2
AcDbSpatialIndex
  3
AutoCAD 2000
 90
        0
280
     0
281
     0
  0
CLASS
  1
OBJECT_PTR
  2
CAseDLPNTableRecord
  3
"ASE-LPNTableRecord"
 90
        1
280
     0
281
     0
  0
CLASS
  1
LAYOUT
  2
AcDbLayout
  3
AutoCAD 2000
 90
        0
280
     0
281
     0
  0
CLASS
  1
PLOTSETTINGS
  2
AcDbPlotSettings
  3
AutoCAD 2000
 90
        0
280
     0
281
     0
  0
CLASS
  1
ACDBDICTIONARYWDFLT
  2
AcDbDictionaryWithDefault
  3
AutoCAD 2000
 90
        0
280
     0
281
     0
  0
CLASS
  1
ACDBPLACEHOLDER
  2
AcDbPlaceHolder
  3
AutoCAD 2000
 90
        0
280
     0
281
     0
  0
CLASS
  1
VBA_PROJECT
  2
AcDbVbaProject
  3
acadvba
 90
        0
280
     0
281
     0
  0
CLASS
  1
WIPEOUT
  2
AcDbWipeout
  3
WipeOut|AutoCAD Express Tool|expresstools@autodesk.com
 90
      127
280
     0
281
     1
  0
CLASS
  1
WIPEOUTVARIABLES
  2
AcDbWipeoutVariables
  3
WipeOut|AutoCAD Express Tool|expresstools@autodesk.com
 90
        0
280
     0
281
     0
  0
CLASS
  1
RTEXT
  2
RText
  3
RText|AutoCAD Express Tool|expresstools@autodesk.com
 90
        0
280
     0
281
     1
  0
CLASS
  1
ARCALIGNEDTEXT
  2
AcDbArcAlignedText
  3
ATEXT|AutoCAD Express Tool|expresstools@autodesk.com
 90
        0
280
     0
281
     1
  0
ENDSEC
  0
SECTION
  2
TABLES
  0
TABLE
  2
VPORT
  5
7
100
AcDbSymbolTable
 70
     1
  0
VPORT
  5
15
100
AcDbSymbolTableRecord
100
AcDbViewportTableRecord
  2
*ACTIVE
 70
     0
 10
0.0
 20
0.0
 11
1.0
 21
1.0
 12
6.591288
 22
4.579184
 13
0.0
 23
0.0
 14
1.0
 24
1.0
 15
0.0
 25
0.0
 16
0.0
 26
0.0
 36
1.0
 17
0.0
 27
0.0
 37
0.0
 40
9.158369
 41
0.688564
 42
50.0
 43
0.0
 44
0.0
 50
0.0
 51
0.0
 71
     0
 72
   100
 73
     1
 74
     1
 75
     0
 76
     0
 77
     0
 78
     0
281
     0
 65
     0
110
0.0
120
0.0
130
0.0
111
1.0
121
0.0
131
0.0
112
0.0
122
1.0
132
0.0
345
0
346
0
 79
     0
146
0.0
  0
ENDTAB
  0
TABLE
  2
LTYPE
  5
4
100
AcDbSymbolTable
 70
     3
  0
LTYPE
  5
11
100
AcDbSymbolTableRecord
100
AcDbLinetypeTableRecord
  2
ByBlock
 70
    64
  3

 72
    65
 73
     0
 40
0.0
  0
LTYPE
  5
12
100
AcDbSymbolTableRecord
100
AcDbLinetypeTableRecord
  2
ByLayer
 70
    64
  3

 72
    65
 73
     0
 40
0.0
  0
LTYPE
  5
13
100
AcDbSymbolTableRecord
100
AcDbLinetypeTableRecord
  2
Continuous
 70
    64
  3
Solid line
 72
    65
 73
     0
 40
0.0
  0
ENDTAB
  0
TABLE
  2
LAYER
  5
2
100
AcDbSymbolTable
 70
     1
  0
LAYER
  5
14
100
AcDbSymbolTableRecord
100
AcDbLayerTableRecord
  2
0
 70
     0
 62
     7
  6
Continuous
290
     1
370
    -3
390
1D
  0
ENDTAB
  0
TABLE
  2
STYLE
  5
3
100
AcDbSymbolTable
 70
     1
  0
STYLE
  5
17
100
AcDbSymbolTableRecord
100
AcDbTextStyleTableRecord
  2
Standard
 70
     0
 40
0.0
 41
1.0
 50
0.0
 71
     0
 42
0.0
  3
txt
  4

  0
ENDTAB
  0
TABLE
  2
VIEW
  5
5
100
AcDbSymbolTable
 70
     0
  0
ENDTAB
  0
TABLE
  2
UCS
  5
6
100
AcDbSymbolTable
 70
     0
  0
ENDTAB
  0
TABLE
  2
APPID
  5
8
100
AcDbSymbolTable
 70
     1
  0
APPID
  5
16
100
AcDbSymbolTableRecord
100
AcDbRegAppTableRecord
  2
ACAD
 70
     0
  0
ENDTAB
  0
TABLE
  2
DIMSTYLE
  5
9
100
AcDbSymbolTable
 70
     1
100
AcDbDimStyleTable
 71
     0
  0
DIMSTYLE
105
18
100
AcDbSymbolTableRecord
100
AcDbDimStyleTableRecord
  2
Standard
 70
     0
  3

  4

 40
1.0
 41
0.18
 42
0.0625
 43
0.38
 44
0.18
 45
0.0
 46
0.0
 47
0.0
 48
0.0
 71
     0
 72
     0
 73
     1
 74
     1
 75
     0
 76
     0
 77
     0
 78
     0
 79
     0
140
0.18
141
0.09
142
0.0
143
25.4
144
1.0
145
0.0
146
1.0
147
0.09
148
0.0
170
     0
171
     2
172
     0
173
     0
174
     0
175
     0
176
     0
177
     0
178
     0
179
     0
271
     4
272
     4
273
     2
274
     2
275
     0
276
     0
277
     2
278
    46
279
     0
280
     0
281
     0
282
     0
283
     1
284
     0
285
     0
286
     0
288
     0
289
     3
340
17
341
0
342
0
343
0
344
0
371
    -2
372
    -2
  0
ENDTAB
  0
TABLE
  2
BLOCK_RECORD
  5
1
100
AcDbSymbolTable
 70
     0
  0
BLOCK_RECORD
  5
A
100
AcDbSymbolTableRecord
100
AcDbBlockTableRecord
  2
*MODEL_SPACE
340
20
  0
BLOCK_RECORD
  5
B
100
AcDbSymbolTableRecord
100
AcDbBlockTableRecord
  2
*PAPER_SPACE
340
21
  0
ENDTAB
  0
ENDSEC
  0
SECTION
  2
BLOCKS
  0
BLOCK
  5
D
100
AcDbEntity
  8
0
390
0
100
AcDbBlockBegin
  2
*MODEL_SPACE
 70
     0
 10
0.0
 20
0.0
 30
0.0
  3
*MODEL_SPACE
  1

  0
ENDBLK
  5
E
100
AcDbEntity
  8
0
390
0
100
AcDbBlockEnd
  0
BLOCK
  5
F
100
AcDbEntity
 67
     1
  8
0
390
0
100
AcDbBlockBegin
  2
*PAPER_SPACE
 70
     0
 10
0.0
 20
0.0
 30
0.0
  3
*PAPER_SPACE
  1

  0
ENDBLK
  5
10
100
AcDbEntity
 67
     1
  8
0
390
0
100
AcDbBlockEnd
  0
ENDSEC
  0
SECTION
  2
ENTITIES
  0
VIEWPORT
  5
64E
100
AcDbEntity
 67
     1
  8
0
370
     0
390
0
 62
     0
 48
0.0
100
AcDbViewport
 10
0.0
 20
0.0
 30
0.0
 40
1000.0
 41
1000.0
 68
     1
 69
     1
 12
0.0
 22
0.0
 13
0.0
 23
0.0
 14
1.0
 24
1.0
 15
1.0
 25
1.0
 16
0.0
 26
0.0
 36
1.0
 17
0.0
 27
0.0
 37
0.0
 42
50.0
 43
0.0
 44
0.0
 45
1000.0
 50
0.0
 51
0.0
 72
   100
 90
        0
340
0
  1

281
     0
 71
     0
 74
     1
110
0.0
120
0.0
130
0.0
111
1.0
121
0.0
131
0.0
112
0.0
122
1.0
132
0.0
345
0
346
0
 79
     0
146
0.0
  0
POLYLINE
  5
24
100
AcDbEntity
  8
0
370
    35
390
0
 62
     1
100
AcDb2dPolyline
 66
     1
 10
0.0
 20
0.0
 30
0.0
 70
     1
 71
   104
  0
VERTEX
  5
25
100
AcDbEntity
  8
0
370
     0
390
0
100
AcDbVertex
100
AcDb2dVertex
 10
1215.60144
 20
553.324951
 30
0.0
  0
VERTEX
  5
26
100
AcDbEntity
  8
0
370
     0
390
0
100
AcDbVertex
100
AcDb2dVertex
 10
1215.60144
 20
551.827087
 30
0.0
  0
VERTEX
  5
27
100
AcDbEntity
  8
0
370
     0
390
0
100
AcDbVertex
100
AcDb2dVertex
 10
1220.004272
 20
551.827087
 30
0.0
  0
VERTEX
  5
28
100
AcDbEntity
  8
0
370
     0
390
0
100
AcDbVertex
100
AcDb2dVertex
 10
1224.407227
 20
551.827087
 30
0.0
  0
VERTEX
  5
29
100
AcDbEntity
  8
0
370
     0
390
0
100
AcDbVertex
100
AcDb2dVertex
 10
1224.407227
 20
553.324951
 30
0.0
  0
VERTEX
  5
2A
100
AcDbEntity
  8
0
370
     0
390
0
100
AcDbVertex
100
AcDb2dVertex
 10
1224.407227
 20
554.822876
 30
0.0
  0
VERTEX
  5
2B
100
AcDbEntity
  8
0
370
     0
390
0
100
AcDbVertex
100
AcDb2dVertex
 10
1228.62854
 20
554.822876
 30
0.0
  0
VERTEX
  5
2C
100
AcDbEntity
  8
0
370
     0
390
0
100
AcDbVertex
100
AcDb2dVertex
 10
1232.849854
 20
554.822876
 30
0.0
  0
VERTEX
  5
2D
100
AcDbEntity
  8
0
370
     0
390
0
100
AcDbVertex
100
AcDb2dVertex
 10
1232.849854
 20
553.324951
 30
0.0
  0
VERTEX
  5
2E
100
AcDbEntity
  8
0
370
     0
390
0
100
AcDbVertex
100
AcDb2dVertex
 10
1232.849854
 20
551.827087
 30
0.0
  0
VERTEX
  5
2F
100
AcDbEntity
  8
0
370
     0
390
0
100
AcDbVertex
100
AcDb2dVertex
 10
1237.252686
 20
551.827087
 30
0.0
  0
VERTEX
  5
30
100
AcDbEntity
  8
0
370
     0
390
0
100
AcDbVertex
100
AcDb2dVertex
 10
1241.65564
 20
551.827087
 30
0.0
  0
VERTEX
  5
31
100
AcDbEntity
  8
0
370
     0
390
0
100
AcDbVertex
100
AcDb2dVertex
 10
1241.65564
 20
553.324951
 30
0.0
  0
VERTEX
  5
32
100
AcDbEntity
  8
0
370
     0
390
0
100
AcDbVertex
100
AcDb2dVertex
 10
1241.65564
 20
554.822876
 30
0.0
  0
VERTEX
  5
33
100
AcDbEntity
  8
0
370
     0
390
0
100
AcDbVertex
100
AcDb2dVertex
 10
1245.876953
 20
554.822876
 30
0.0
  0
VERTEX
  5
34
100
AcDbEntity
  8
0
370
     0
390
0
100
AcDbVertex
100
AcDb2dVertex
 10
1250.098267
 20
554.822876
 30
0.0
  0
VERTEX
  5
35
100
AcDbEntity
  8
0
370
     0
390
0
100
AcDbVertex
100
AcDb2dVertex
 10
1250.098267
 20
553.324951
 30
0.0
  0
VERTEX
  5
36
100
AcDbEntity
  8
0
370
     0
390
0
100
AcDbVertex
100
AcDb2dVertex
 10
1250.098267
 20
551.827087
 30
0.0
  0
VERTEX
  5
37
100
AcDbEntity
  8
0
370
     0
390
0
100
AcDbVertex
100
AcDb2dVertex
 10
1254.455688
 20
551.827087
 30
0.0
  0
VERTEX
  5
38
100
AcDbEntity
  8
0
370
     0
390
0
100
AcDbVertex
100
AcDb2dVertex
 10
1258.813232
 20
551.827087
 30
0.0
  0
VERTEX
  5
39
100
AcDbEntity
  8
0
370
     0
390
0
100
AcDbVertex
100
AcDb2dVertex
 10
1258.813232
 20
553.324951
 30
0.0
  0
VERTEX
  5
3A
100
AcDbEntity
  8
0
370
     0
390
0
100
AcDbVertex
100
AcDb2dVertex
 10
1258.813232
 20
554.822876
 30
0.0
  0
VERTEX
  5
3B
100
AcDbEntity
  8
0
370
     0
390
0
100
AcDbVertex
100
AcDb2dVertex
 10
1263.034546
 20
554.822876
 30
0.0
  0
VERTEX
  5
3C
100
AcDbEntity
  8
0
370
     0
390
0
100
AcDbVertex
100
AcDb2dVertex
 10
1267.255859
 20
554.822876
 30
0.0
  0
VERTEX
  5
3D
100
AcDbEntity
  8
0
370
     0
390
0
100
AcDbVertex
100
AcDb2dVertex
 10
1267.255859
 20
550.646912
 30
0.0
  0
VERTEX
  5
3E
100
AcDbEntity
  8
0
370
     0
390
0
100
AcDbVertex
100
AcDb2dVertex
 10
1267.255859
 20
546.471008
 30
0.0
  0
VERTEX
  5
3F
100
AcDbEntity
  8
0
370
     0
390
0
100
AcDbVertex
100
AcDb2dVertex
 10
1265.757935
 20
546.471008
 30
0.0
  0
VERTEX
  5
40
100
AcDbEntity
  8
0
370
     0
390
0
100
AcDbVertex
100
AcDb2dVertex
 10
1264.260132
 20
546.471008
 30
0.0
  0
VERTEX
  5
41
100
AcDbEntity
  8
0
370
     0
390
0
100
AcDbVertex
100
AcDb2dVertex
 10
1264.260132
 20
542.068115
 30
0.0
  0
VERTEX
  5
42
100
AcDbEntity
  8
0
370
     0
390
0
100
AcDbVertex
100
AcDb2dVertex
 10
1264.260132
 20
537.665222
 30
0.0
  0
VERTEX
  5
43
100
AcDbEntity
  8
0
370
     0
390
0
100
AcDbVertex
100
AcDb2dVertex
 10
1265.757935
 20
537.665222
 30
0.0
  0
VERTEX
  5
44
100
AcDbEntity
  8
0
370
     0
390
0
100
AcDbVertex
100
AcDb2dVertex
 10
1267.255859
 20
537.665222
 30
0.0
  0
VERTEX
  5
45
100
AcDbEntity
  8
0
370
     0
390
0
100
AcDbVertex
100
AcDb2dVertex
 10
1267.255859
 20
533.443909
 30
0.0
  0
VERTEX
  5
46
100
AcDbEntity
  8
0
370
     0
390
0
100
AcDbVertex
100
AcDb2dVertex
 10
1267.255859
 20
529.222595
 30
0.0
  0
VERTEX
  5
47
100
AcDbEntity
  8
0
370
     0
390
0
100
AcDbVertex
100
AcDb2dVertex
 10
1265.757935
 20
529.222595
 30
0.0
  0
VERTEX
  5
48
100
AcDbEntity
  8
0
370
     0
390
0
100
AcDbVertex
100
AcDb2dVertex
 10
1264.260132
 20
529.222595
 30
0.0
  0
VERTEX
  5
49
100
AcDbEntity
  8
0
370
     0
390
0
100
AcDbVertex
100
AcDb2dVertex
 10
1264.260132
 20
524.819702
 30
0.0
  0
VERTEX
  5
4A
100
AcDbEntity
  8
0
370
     0
390
0
100
AcDbVertex
100
AcDb2dVertex
 10
1264.260132
 20
520.416809
 30
0.0
  0
VERTEX
  5
4B
100
AcDbEntity
  8
0
370
     0
390
0
100
AcDbVertex
100
AcDb2dVertex
 10
1265.757935
 20
520.416809
 30
0.0
  0
VERTEX
  5
4C
100
AcDbEntity
  8
0
370
     0
390
0
100
AcDbVertex
100
AcDb2dVertex
 10
1267.255859
 20
520.416809
 30
0.0
  0
VERTEX
  5
4D
100
AcDbEntity
  8
0
370
     0
390
0
100
AcDbVertex
100
AcDb2dVertex
 10
1267.255859
 20
516.195496
 30
0.0
  0
VERTEX
  5
4E
100
AcDbEntity
  8
0
370
     0
390
0
100
AcDbVertex
100
AcDb2dVertex
 10
1267.255859
 20
511.974182
 30
0.0
  0
VERTEX
  5
4F
100
AcDbEntity
  8
0
370
     0
390
0
100
AcDbVertex
100
AcDb2dVertex
 10
1265.757935
 20
511.974182
 30
0.0
  0
VERTEX
  5
50
100
AcDbEntity
  8
0
370
     0
390
0
100
AcDbVertex
100
AcDb2dVertex
 10
1264.260132
 20
511.974182
 30
0.0
  0
VERTEX
  5
51
100
AcDbEntity
  8
0
370
     0
390
0
100
AcDbVertex
100
AcDb2dVertex
 10
1264.260132
 20
507.571289
 30
0.0
  0
VERTEX
  5
52
100
AcDbEntity
  8
0
370
     0
390
0
100
AcDbVertex
100
AcDb2dVertex
 10
1264.260132
 20
503.168396
 30
0.0
  0
VERTEX
  5
53
100
AcDbEntity
  8
0
370
     0
390
0
100
AcDbVertex
100
AcDb2dVertex
 10
1265.757935
 20
503.168396
 30
0.0
  0
VERTEX
  5
54
100
AcDbEntity
  8
0
370
     0
390
0
100
AcDbVertex
100
AcDb2dVertex
 10
1267.255859
 20
503.168396
 30
0.0
  0
VERTEX
  5
55
100
AcDbEntity
  8
0
370
     0
390
0
100
AcDbVertex
100
AcDb2dVertex
 10
1267.255859
 20
498.992493
 30
0.0
  0
VERTEX
  5
56
100
AcDbEntity
  8
0
370
     0
390
0
100
AcDbVertex
100
AcDb2dVertex
 10
1267.255859
 20
494.816528
 30
0.0
  0
VERTEX
  5
57
100
AcDbEntity
  8
0
370
     0
390
0
100
AcDbVertex
100
AcDb2dVertex
 10
1263.034546
 20
494.816528
 30
0.0
  0
VERTEX
  5
58
100
AcDbEntity
  8
0
370
     0
390
0
100
AcDbVertex
100
AcDb2dVertex
 10
1258.813232
 20
494.816528
 30
0.0
  0
VERTEX
  5
59
100
AcDbEntity
  8
0
370
     0
390
0
100
AcDbVertex
100
AcDb2dVertex
 10
1258.813232
 20
496.314453
 30
0.0
  0
VERTEX
  5
5A
100
AcDbEntity
  8
0
370
     0
390
0
100
AcDbVertex
100
AcDb2dVertex
 10
1258.813232
 20
497.812317
 30
0.0
  0
VERTEX
  5
5B
100
AcDbEntity
  8
0
370
     0
390
0
100
AcDbVertex
100
AcDb2dVertex
 10
1254.455688
 20
497.812317
 30
0.0
  0
VERTEX
  5
5C
100
AcDbEntity
  8
0
370
     0
390
0
100
AcDbVertex
100
AcDb2dVertex
 10
1250.098267
 20
497.812317
 30
0.0
  0
VERTEX
  5
5D
100
AcDbEntity
  8
0
370
     0
390
0
100
AcDbVertex
100
AcDb2dVertex
 10
1250.098267
 20
496.314453
 30
0.0
  0
VERTEX
  5
5E
100
AcDbEntity
  8
0
370
     0
390
0
100
AcDbVertex
100
AcDb2dVertex
 10
1250.098267
 20
494.816528
 30
0.0
  0
VERTEX
  5
5F
100
AcDbEntity
  8
0
370
     0
390
0
100
AcDbVertex
100
AcDb2dVertex
 10
1245.876953
 20
494.816528
 30
0.0
  0
VERTEX
  5
60
100
AcDbEntity
  8
0
370
     0
390
0
100
AcDbVertex
100
AcDb2dVertex
 10
1241.65564
 20
494.816528
 30
0.0
  0
VERTEX
  5
61
100
AcDbEntity
  8
0
370
     0
390
0
100
AcDbVertex
100
AcDb2dVertex
 10
1241.65564
 20
496.314453
 30
0.0
  0
VERTEX
  5
62
100
AcDbEntity
  8
0
370
     0
390
0
100
AcDbVertex
100
AcDb2dVertex
 10
1241.65564
 20
497.812317
 30
0.0
  0
VERTEX
  5
63
100
AcDbEntity
  8
0
370
     0
390
0
100
AcDbVertex
100
AcDb2dVertex
 10
1237.252686
 20
497.812317
 30
0.0
  0
VERTEX
  5
64
100
AcDbEntity
  8
0
370
     0
390
0
100
AcDbVertex
100
AcDb2dVertex
 10
1232.849854
 20
497.812317
 30
0.0
  0
VERTEX
  5
65
100
AcDbEntity
  8
0
370
     0
390
0
100
AcDbVertex
100
AcDb2dVertex
 10
1232.849854
 20
496.314453
 30
0.0
  0
VERTEX
  5
66
100
AcDbEntity
  8
0
370
     0
390
0
100
AcDbVertex
100
AcDb2dVertex
 10
1232.849854
 20
494.816528
 30
0.0
  0
VERTEX
  5
67
100
AcDbEntity
  8
0
370
     0
390
0
100
AcDbVertex
100
AcDb2dVertex
 10
1228.62854
 20
494.816528
 30
0.0
  0
VERTEX
  5
68
100
AcDbEntity
  8
0
370
     0
390
0
100
AcDbVertex
100
AcDb2dVertex
 10
1224.407227
 20
494.816528
 30
0.0
  0
VERTEX
  5
69
100
AcDbEntity
  8
0
370
     0
390
0
100
AcDbVertex
100
AcDb2dVertex
 10
1224.407227
 20
496.314453
 30
0.0
  0
VERTEX
  5
6A
100
AcDbEntity
  8
0
370
     0
390
0
100
AcDbVertex
100
AcDb2dVertex
 10
1224.407227
 20
497.812317
 30
0.0
  0
VERTEX
  5
6B
100
AcDbEntity
  8
0
370
     0
390
0
100
AcDbVertex
100
AcDb2dVertex
 10
1220.004272
 20
497.812317
 30
0.0
  0
VERTEX
  5
6C
100
AcDbEntity
  8
0
370
     0
390
0
100
AcDbVertex
100
AcDb2dVertex
 10
1215.60144
 20
497.812317
 30
0.0
  0
VERTEX
  5
6D
100
AcDbEntity
  8
0
370
     0
390
0
100
AcDbVertex
100
AcDb2dVertex
 10
1215.60144
 20
496.314453
 30
0.0
  0
VERTEX
  5
6E
100
AcDbEntity
  8
0
370
     0
390
0
100
AcDbVertex
100
AcDb2dVertex
 10
1215.60144
 20
494.816528
 30
0.0
  0
VERTEX
  5
6F
100
AcDbEntity
  8
0
370
     0
390
0
100
AcDbVertex
100
AcDb2dVertex
 10
1211.425537
 20
494.816528
 30
0.0
  0
VERTEX
  5
70
100
AcDbEntity
  8
0
370
     0
390
0
100
AcDbVertex
100
AcDb2dVertex
 10
1207.249512
 20
494.816528
 30
0.0
  0
VERTEX
  5
71
100
AcDbEntity
  8
0
370
     0
390
0
100
AcDbVertex
100
AcDb2dVertex
 10
1207.249512
 20
498.992493
 30
0.0
  0
VERTEX
  5
72
100
AcDbEntity
  8
0
370
     0
390
0
100
AcDbVertex
100
AcDb2dVertex
 10
1207.249512
 20
503.168396
 30
0.0
  0
VERTEX
  5
73
100
AcDbEntity
  8
0
370
     0
390
0
100
AcDbVertex
100
AcDb2dVertex
 10
1208.747437
 20
503.168396
 30
0.0
  0
VERTEX
  5
74
100
AcDbEntity
  8
0
370
     0
390
0
100
AcDbVertex
100
AcDb2dVertex
 10
1210.245361
 20
503.168396
 30
0.0
  0
VERTEX
  5
75
100
AcDbEntity
  8
0
370
     0
390
0
100
AcDbVertex
100
AcDb2dVertex
 10
1210.245361
 20
507.571289
 30
0.0
  0
VERTEX
  5
76
100
AcDbEntity
  8
0
370
     0
390
0
100
AcDbVertex
100
AcDb2dVertex
 10
1210.245361
 20
511.974182
 30
0.0
  0
VERTEX
  5
77
100
AcDbEntity
  8
0
370
     0
390
0
100
AcDbVertex
100
AcDb2dVertex
 10
1208.747437
 20
511.974182
 30
0.0
  0
VERTEX
  5
78
100
AcDbEntity
  8
0
370
     0
390
0
100
AcDbVertex
100
AcDb2dVertex
 10
1207.249512
 20
511.974182
 30
0.0
  0
VERTEX
  5
79
100
AcDbEntity
  8
0
370
     0
390
0
100
AcDbVertex
100
AcDb2dVertex
 10
1207.249512
 20
516.195496
 30
0.0
  0
VERTEX
  5
7A
100
AcDbEntity
  8
0
370
     0
390
0
100
AcDbVertex
100
AcDb2dVertex
 10
1207.249512
 20
520.416809
 30
0.0
  0
VERTEX
  5
7B
100
AcDbEntity
  8
0
370
     0
390
0
100
AcDbVertex
100
AcDb2dVertex
 10
1208.747437
 20
520.416809
 30
0.0
  0
VERTEX
  5
7C
100
AcDbEntity
  8
0
370
     0
390
0
100
AcDbVertex
100
AcDb2dVertex
 10
1210.245361
 20
520.416809
 30
0.0
  0
VERTEX
  5
7D
100
AcDbEntity
  8
0
370
     0
390
0
100
AcDbVertex
100
AcDb2dVertex
 10
1210.245361
 20
524.819702
 30
0.0
  0
VERTEX
  5
7E
100
AcDbEntity
  8
0
370
     0
390
0
100
AcDbVertex
100
AcDb2dVertex
 10
1210.245361
 20
529.222595
 30
0.0
  0
VERTEX
  5
7F
100
AcDbEntity
  8
0
370
     0
390
0
100
AcDbVertex
100
AcDb2dVertex
 10
1208.747437
 20
529.222595
 30
0.0
  0
VERTEX
  5
80
100
AcDbEntity
  8
0
370
     0
390
0
100
AcDbVertex
100
AcDb2dVertex
 10
1207.249512
 20
529.222595
 30
0.0
  0
VERTEX
  5
81
100
AcDbEntity
  8
0
370
     0
390
0
100
AcDbVertex
100
AcDb2dVertex
 10
1207.249512
 20
533.443909
 30
0.0
  0
VERTEX
  5
82
100
AcDbEntity
  8
0
370
     0
390
0
100
AcDbVertex
100
AcDb2dVertex
 10
1207.249512
 20
537.665222
 30
0.0
  0
VERTEX
  5
83
100
AcDbEntity
  8
0
370
     0
390
0
100
AcDbVertex
100
AcDb2dVertex
 10
1208.747437
 20
537.665222
 30
0.0
  0
VERTEX
  5
84
100
AcDbEntity
  8
0
370
     0
390
0
100
AcDbVertex
100
AcDb2dVertex
 10
1210.245361
 20
537.665222
 30
0.0
  0
VERTEX
  5
85
100
AcDbEntity
  8
0
370
     0
390
0
100
AcDbVertex
100
AcDb2dVertex
 10
1210.245361
 20
542.068115
 30
0.0
  0
VERTEX
  5
86
100
AcDbEntity
  8
0
370
     0
390
0
100
AcDbVertex
100
AcDb2dVertex
 10
1210.245361
 20
546.471008
 30
0.0
  0
VERTEX
  5
87
100
AcDbEntity
  8
0
370
     0
390
0
100
AcDbVertex
100
AcDb2dVertex
 10
1208.747437
 20
546.471008
 30
0.0
  0
VERTEX
  5
88
100
AcDbEntity
  8
0
370
     0
390
0
100
AcDbVertex
100
AcDb2dVertex
 10
1207.249512
 20
546.471008
 30
0.0
  0
VERTEX
  5
89
100
AcDbEntity
  8
0
370
     0
390
0
100
AcDbVertex
100
AcDb2dVertex
 10
1207.249512
 20
550.646912
 30
0.0
  0
VERTEX
  5
8A
100
AcDbEntity
  8
0
370
     0
390
0
100
AcDbVertex
100
AcDb2dVertex
 10
1207.249512
 20
554.822876
 30
0.0
  0
VERTEX
  5
8B
100
AcDbEntity
  8
0
370
     0
390
0
100
AcDbVertex
100
AcDb2dVertex
 10
1211.425537
 20
554.822876
 30
0.0
  0
VERTEX
  5
8C
100
AcDbEntity
  8
0
370
     0
390
0
100
AcDbVertex
100
AcDb2dVertex
 10
1215.60144
 20
554.822876
 30
0.0
  0
SEQEND
  5
8D
100
AcDbEntity
  8
0
370
     0
390
0
  0
POLYLINE
  5
8E
100
AcDbEntity
  8
0
370
    35
390
0
 62
     1
100
AcDb2dPolyline
 66
     1
 10
0.0
 20
0.0
 30
0.0
 70
     1
 71
   104
  0
VERTEX
  5
8F
100
AcDbEntity
  8
0
370
     0
390
0
100
AcDbVertex
100
AcDb2dVertex
 10
1278.966675
 20
553.324951
 30
0.0
  0
VERTEX
  5
90
100
AcDbEntity
  8
0
370
     0
390
0
100
AcDbVertex
100
AcDb2dVertex
 10
1278.966675
 20
551.827087
 30
0.0
  0
VERTEX
  5
91
100
AcDbEntity
  8
0
370
     0
390
0
100
AcDbVertex
100
AcDb2dVertex
 10
1283.324097
 20
551.827087
 30
0.0
  0
VERTEX
  5
92
100
AcDbEntity
  8
0
370
     0
390
0
100
AcDbVertex
100
AcDb2dVertex
 10
1287.681641
 20
551.827087
 30
0.0
  0
VERTEX
  5
93
100
AcDbEntity
  8
0
370
     0
390
0
100
AcDbVertex
100
AcDb2dVertex
 10
1287.681641
 20
553.324951
 30
0.0
  0
VERTEX
  5
94
100
AcDbEntity
  8
0
370
     0
390
0
100
AcDbVertex
100
AcDb2dVertex
 10
1287.681641
 20
554.822876
 30
0.0
  0
VERTEX
  5
95
100
AcDbEntity
  8
0
370
     0
390
0
100
AcDbVertex
100
AcDb2dVertex
 10
1291.902954
 20
554.822876
 30
0.0
  0
VERTEX
  5
96
100
AcDbEntity
  8
0
370
     0
390
0
100
AcDbVertex
100
AcDb2dVertex
 10
1296.124268
 20
554.822876
 30
0.0
  0
VERTEX
  5
97
100
AcDbEntity
  8
0
370
     0
390
0
100
AcDbVertex
100
AcDb2dVertex
 10
1296.124268
 20
553.324951
 30
0.0
  0
VERTEX
  5
98
100
AcDbEntity
  8
0
370
     0
390
0
100
AcDbVertex
100
AcDb2dVertex
 10
1296.124268
 20
551.827087
 30
0.0
  0
VERTEX
  5
99
100
AcDbEntity
  8
0
370
     0
390
0
100
AcDbVertex
100
AcDb2dVertex
 10
1300.5271
 20
551.827087
 30
0.0
  0
VERTEX
  5
9A
100
AcDbEntity
  8
0
370
     0
390
0
100
AcDbVertex
100
AcDb2dVertex
 10
1304.930054
 20
551.827087
 30
0.0
  0
VERTEX
  5
9B
100
AcDbEntity
  8
0
370
     0
390
0
100
AcDbVertex
100
AcDb2dVertex
 10
1304.930054
 20
553.324951
 30
0.0
  0
VERTEX
  5
9C
100
AcDbEntity
  8
0
370
     0
390
0
100
AcDbVertex
100
AcDb2dVertex
 10
1304.930054
 20
554.822876
 30
0.0
  0
VERTEX
  5
9D
100
AcDbEntity
  8
0
370
     0
390
0
100
AcDbVertex
100
AcDb2dVertex
 10
1309.151367
 20
554.822876
 30
0.0
  0
VERTEX
  5
9E
100
AcDbEntity
  8
0
370
     0
390
0
100
AcDbVertex
100
AcDb2dVertex
 10
1313.372681
 20
554.822876
 30
0.0
  0
VERTEX
  5
9F
100
AcDbEntity
  8
0
370
     0
390
0
100
AcDbVertex
100
AcDb2dVertex
 10
1313.372681
 20
553.324951
 30
0.0
  0
VERTEX
  5
A0
100
AcDbEntity
  8
0
370
     0
390
0
100
AcDbVertex
100
AcDb2dVertex
 10
1313.372681
 20
551.827087
 30
0.0
  0
VERTEX
  5
A1
100
AcDbEntity
  8
0
370
     0
390
0
100
AcDbVertex
100
AcDb2dVertex
 10
1317.775513
 20
551.827087
 30
0.0
  0
VERTEX
  5
A2
100
AcDbEntity
  8
0
370
     0
390
0
100
AcDbVertex
100
AcDb2dVertex
 10
1322.178467
 20
551.827087
 30
0.0
  0
VERTEX
  5
A3
100
AcDbEntity
  8
0
370
     0
390
0
100
AcDbVertex
100
AcDb2dVertex
 10
1322.178467
 20
553.324951
 30
0.0
  0
VERTEX
  5
A4
100
AcDbEntity
  8
0
370
     0
390
0
100
AcDbVertex
100
AcDb2dVertex
 10
1322.178467
 20
554.822876
 30
0.0
  0
VERTEX
  5
A5
100
AcDbEntity
  8
0
370
     0
390
0
100
AcDbVertex
100
AcDb2dVertex
 10
1326.35437
 20
554.822876
 30
0.0
  0
VERTEX
  5
A6
100
AcDbEntity
  8
0
370
     0
390
0
100
AcDbVertex
100
AcDb2dVertex
 10
1330.530273
 20
554.822876
 30
0.0
  0
VERTEX
  5
A7
100
AcDbEntity
  8
0
370
     0
390
0
100
AcDbVertex
100
AcDb2dVertex
 10
1330.530273
 20
550.646912
 30
0.0
  0
VERTEX
  5
A8
100
AcDbEntity
  8
0
370
     0
390
0
100
AcDbVertex
100
AcDb2dVertex
 10
1330.530273
 20
546.471008
 30
0.0
  0
VERTEX
  5
A9
100
AcDbEntity
  8
0
370
     0
390
0
100
AcDbVertex
100
AcDb2dVertex
 10
1329.032349
 20
546.471008
 30
0.0
  0
VERTEX
  5
AA
100
AcDbEntity
  8
0
370
     0
390
0
100
AcDbVertex
100
AcDb2dVertex
 10
1327.534546
 20
546.471008
 30
0.0
  0
VERTEX
  5
AB
100
AcDbEntity
  8
0
370
     0
390
0
100
AcDbVertex
100
AcDb2dVertex
 10
1327.534546
 20
542.068115
 30
0.0
  0
VERTEX
  5
AC
100
AcDbEntity
  8
0
370
     0
390
0
100
AcDbVertex
100
AcDb2dVertex
 10
1327.534546
 20
537.665222
 30
0.0
  0
VERTEX
  5
AD
100
AcDbEntity
  8
0
370
     0
390
0
100
AcDbVertex
100
AcDb2dVertex
 10
1329.032349
 20
537.665222
 30
0.0
  0
VERTEX
  5
AE
100
AcDbEntity
  8
0
370
     0
390
0
100
AcDbVertex
100
AcDb2dVertex
 10
1330.530273
 20
537.665222
 30
0.0
  0
VERTEX
  5
AF
100
AcDbEntity
  8
0
370
     0
390
0
100
AcDbVertex
100
AcDb2dVertex
 10
1330.530273
 20
533.443909
 30
0.0
  0
VERTEX
  5
B0
100
AcDbEntity
  8
0
370
     0
390
0
100
AcDbVertex
100
AcDb2dVertex
 10
1330.530273
 20
529.222595
 30
0.0
  0
VERTEX
  5
B1
100
AcDbEntity
  8
0
370
     0
390
0
100
AcDbVertex
100
AcDb2dVertex
 10
1329.032349
 20
529.222595
 30
0.0
  0
VERTEX
  5
B2
100
AcDbEntity
  8
0
370
     0
390
0
100
AcDbVertex
100
AcDb2dVertex
 10
1327.534546
 20
529.222595
 30
0.0
  0
VERTEX
  5
B3
100
AcDbEntity
  8
0
370
     0
390
0
100
AcDbVertex
100
AcDb2dVertex
 10
1327.534546
 20
524.819702
 30
0.0
  0
VERTEX
  5
B4
100
AcDbEntity
  8
0
370
     0
390
0
100
AcDbVertex
100
AcDb2dVertex
 10
1327.534546
 20
520.416809
 30
0.0
  0
VERTEX
  5
B5
100
AcDbEntity
  8
0
370
     0
390
0
100
AcDbVertex
100
AcDb2dVertex
 10
1329.032349
 20
520.416809
 30
0.0
  0
VERTEX
  5
B6
100
AcDbEntity
  8
0
370
     0
390
0
100
AcDbVertex
100
AcDb2dVertex
 10
1330.530273
 20
520.416809
 30
0.0
  0
VERTEX
  5
B7
100
AcDbEntity
  8
0
370
     0
390
0
100
AcDbVertex
100
AcDb2dVertex
 10
1330.530273
 20
516.195496
 30
0.0
  0
VERTEX
  5
B8
100
AcDbEntity
  8
0
370
     0
390
0
100
AcDbVertex
100
AcDb2dVertex
 10
1330.530273
 20
511.974182
 30
0.0
  0
VERTEX
  5
B9
100
AcDbEntity
  8
0
370
     0
390
0
100
AcDbVertex
100
AcDb2dVertex
 10
1329.032349
 20
511.974182
 30
0.0
  0
VERTEX
  5
BA
100
AcDbEntity
  8
0
370
     0
390
0
100
AcDbVertex
100
AcDb2dVertex
 10
1327.534546
 20
511.974182
 30
0.0
  0
VERTEX
  5
BB
100
AcDbEntity
  8
0
370
     0
390
0
100
AcDbVertex
100
AcDb2dVertex
 10
1327.534546
 20
507.571289
 30
0.0
  0
VERTEX
  5
BC
100
AcDbEntity
  8
0
370
     0
390
0
100
AcDbVertex
100
AcDb2dVertex
 10
1327.534546
 20
503.168396
 30
0.0
  0
VERTEX
  5
BD
100
AcDbEntity
  8
0
370
     0
390
0
100
AcDbVertex
100
AcDb2dVertex
 10
1329.032349
 20
503.168396
 30
0.0
  0
VERTEX
  5
BE
100
AcDbEntity
  8
0
370
     0
390
0
100
AcDbVertex
100
AcDb2dVertex
 10
1330.530273
 20
503.168396
 30
0.0
  0
VERTEX
  5
BF
100
AcDbEntity
  8
0
370
     0
390
0
100
AcDbVertex
100
AcDb2dVertex
 10
1330.530273
 20
498.992493
 30
0.0
  0
VERTEX
  5
C0
100
AcDbEntity
  8
0
370
     0
390
0
100
AcDbVertex
100
AcDb2dVertex
 10
1330.530273
 20
494.816528
 30
0.0
  0
VERTEX
  5
C1
100
AcDbEntity
  8
0
370
     0
390
0
100
AcDbVertex
100
AcDb2dVertex
 10
1326.35437
 20
494.816528
 30
0.0
  0
VERTEX
  5
C2
100
AcDbEntity
  8
0
370
     0
390
0
100
AcDbVertex
100
AcDb2dVertex
 10
1322.178467
 20
494.816528
 30
0.0
  0
VERTEX
  5
C3
100
AcDbEntity
  8
0
370
     0
390
0
100
AcDbVertex
100
AcDb2dVertex
 10
1322.178467
 20
496.314453
 30
0.0
  0
VERTEX
  5
C4
100
AcDbEntity
  8
0
370
     0
390
0
100
AcDbVertex
100
AcDb2dVertex
 10
1322.178467
 20
497.812317
 30
0.0
  0
VERTEX
  5
C5
100
AcDbEntity
  8
0
370
     0
390
0
100
AcDbVertex
100
AcDb2dVertex
 10
1317.775513
 20
497.812317
 30
0.0
  0
VERTEX
  5
C6
100
AcDbEntity
  8
0
370
     0
390
0
100
AcDbVertex
100
AcDb2dVertex
 10
1313.372681
 20
497.812317
 30
0.0
  0
VERTEX
  5
C7
100
AcDbEntity
  8
0
370
     0
390
0
100
AcDbVertex
100
AcDb2dVertex
 10
1313.372681
 20
496.314453
 30
0.0
  0
VERTEX
  5
C8
100
AcDbEntity
  8
0
370
     0
390
0
100
AcDbVertex
100
AcDb2dVertex
 10
1313.372681
 20
494.816528
 30
0.0
  0
VERTEX
  5
C9
100
AcDbEntity
  8
0
370
     0
390
0
100
AcDbVertex
100
AcDb2dVertex
 10
1309.151367
 20
494.816528
 30
0.0
  0
VERTEX
  5
CA
100
AcDbEntity
  8
0
370
     0
390
0
100
AcDbVertex
100
AcDb2dVertex
 10
1304.930054
 20
494.816528
 30
0.0
  0
VERTEX
  5
CB
100
AcDbEntity
  8
0
370
     0
390
0
100
AcDbVertex
100
AcDb2dVertex
 10
1304.930054
 20
496.314453
 30
0.0
  0
VERTEX
  5
CC
100
AcDbEntity
  8
0
370
     0
390
0
100
AcDbVertex
100
AcDb2dVertex
 10
1304.930054
 20
497.812317
 30
0.0
  0
VERTEX
  5
CD
100
AcDbEntity
  8
0
370
     0
390
0
100
AcDbVertex
100
AcDb2dVertex
 10
1300.5271
 20
497.812317
 30
0.0
  0
VERTEX
  5
CE
100
AcDbEntity
  8
0
370
     0
390
0
100
AcDbVertex
100
AcDb2dVertex
 10
1296.124268
 20
497.812317
 30
0.0
  0
VERTEX
  5
CF
100
AcDbEntity
  8
0
370
     0
390
0
100
AcDbVertex
100
AcDb2dVertex
 10
1296.124268
 20
496.314453
 30
0.0
  0
VERTEX
  5
D0
100
AcDbEntity
  8
0
370
     0
390
0
100
AcDbVertex
100
AcDb2dVertex
 10
1296.124268
 20
494.816528
 30
0.0
  0
VERTEX
  5
D1
100
AcDbEntity
  8
0
370
     0
390
0
100
AcDbVertex
100
AcDb2dVertex
 10
1291.902954
 20
494.816528
 30
0.0
  0
VERTEX
  5
D2
100
AcDbEntity
  8
0
370
     0
390
0
100
AcDbVertex
100
AcDb2dVertex
 10
1287.681641
 20
494.816528
 30
0.0
  0
VERTEX
  5
D3
100
AcDbEntity
  8
0
370
     0
390
0
100
AcDbVertex
100
AcDb2dVertex
 10
1287.681641
 20
496.314453
 30
0.0
  0
VERTEX
  5
D4
100
AcDbEntity
  8
0
370
     0
390
0
100
AcDbVertex
100
AcDb2dVertex
 10
1287.681641
 20
497.812317
 30
0.0
  0
VERTEX
  5
D5
100
AcDbEntity
  8
0
370
     0
390
0
100
AcDbVertex
100
AcDb2dVertex
 10
1283.324097
 20
497.812317
 30
0.0
  0
VERTEX
  5
D6
100
AcDbEntity
  8
0
370
     0
390
0
100
AcDbVertex
100
AcDb2dVertex
 10
1278.966675
 20
497.812317
 30
0.0
  0
VERTEX
  5
D7
100
AcDbEntity
  8
0
370
     0
390
0
100
AcDbVertex
100
AcDb2dVertex
 10
1278.966675
 20
496.314453
 30
0.0
  0
VERTEX
  5
D8
100
AcDbEntity
  8
0
370
     0
390
0
100
AcDbVertex
100
AcDb2dVertex
 10
1278.966675
 20
494.816528
 30
0.0
  0
VERTEX
  5
D9
100
AcDbEntity
  8
0
370
     0
390
0
100
AcDbVertex
100
AcDb2dVertex
 10
1274.745239
 20
494.816528
 30
0.0
  0
VERTEX
  5
DA
100
AcDbEntity
  8
0
370
     0
390
0
100
AcDbVertex
100
AcDb2dVertex
 10
1270.523926
 20
494.816528
 30
0.0
  0
VERTEX
  5
DB
100
AcDbEntity
  8
0
370
     0
390
0
100
AcDbVertex
100
AcDb2dVertex
 10
1270.523926
 20
498.992493
 30
0.0
  0
VERTEX
  5
DC
100
AcDbEntity
  8
0
370
     0
390
0
100
AcDbVertex
100
AcDb2dVertex
 10
1270.523926
 20
503.168396
 30
0.0
  0
VERTEX
  5
DD
100
AcDbEntity
  8
0
370
     0
390
0
100
AcDbVertex
100
AcDb2dVertex
 10
1272.021851
 20
503.168396
 30
0.0
  0
VERTEX
  5
DE
100
AcDbEntity
  8
0
370
     0
390
0
100
AcDbVertex
100
AcDb2dVertex
 10
1273.519775
 20
503.168396
 30
0.0
  0
VERTEX
  5
DF
100
AcDbEntity
  8
0
370
     0
390
0
100
AcDbVertex
100
AcDb2dVertex
 10
1273.519775
 20
507.571289
 30
0.0
  0
VERTEX
  5
E0
100
AcDbEntity
  8
0
370
     0
390
0
100
AcDbVertex
100
AcDb2dVertex
 10
1273.519775
 20
511.974182
 30
0.0
  0
VERTEX
  5
E1
100
AcDbEntity
  8
0
370
     0
390
0
100
AcDbVertex
100
AcDb2dVertex
 10
1272.021851
 20
511.974182
 30
0.0
  0
VERTEX
  5
E2
100
AcDbEntity
  8
0
370
     0
390
0
100
AcDbVertex
100
AcDb2dVertex
 10
1270.523926
 20
511.974182
 30
0.0
  0
VERTEX
  5
E3
100
AcDbEntity
  8
0
370
     0
390
0
100
AcDbVertex
100
AcDb2dVertex
 10
1270.523926
 20
516.195496
 30
0.0
  0
VERTEX
  5
E4
100
AcDbEntity
  8
0
370
     0
390
0
100
AcDbVertex
100
AcDb2dVertex
 10
1270.523926
 20
520.416809
 30
0.0
  0
VERTEX
  5
E5
100
AcDbEntity
  8
0
370
     0
390
0
100
AcDbVertex
100
AcDb2dVertex
 10
1272.021851
 20
520.416809
 30
0.0
  0
VERTEX
  5
E6
100
AcDbEntity
  8
0
370
     0
390
0
100
AcDbVertex
100
AcDb2dVertex
 10
1273.519775
 20
520.416809
 30
0.0
  0
VERTEX
  5
E7
100
AcDbEntity
  8
0
370
     0
390
0
100
AcDbVertex
100
AcDb2dVertex
 10
1273.519775
 20
524.819702
 30
0.0
  0
VERTEX
  5
E8
100
AcDbEntity
  8
0
370
     0
390
0
100
AcDbVertex
100
AcDb2dVertex
 10
1273.519775
 20
529.222595
 30
0.0
  0
VERTEX
  5
E9
100
AcDbEntity
  8
0
370
     0
390
0
100
AcDbVertex
100
AcDb2dVertex
 10
1272.021851
 20
529.222595
 30
0.0
  0
VERTEX
  5
EA
100
AcDbEntity
  8
0
370
     0
390
0
100
AcDbVertex
100
AcDb2dVertex
 10
1270.523926
 20
529.222595
 30
0.0
  0
VERTEX
  5
EB
100
AcDbEntity
  8
0
370
     0
390
0
100
AcDbVertex
100
AcDb2dVertex
 10
1270.523926
 20
533.443909
 30
0.0
  0
VERTEX
  5
EC
100
AcDbEntity
  8
0
370
     0
390
0
100
AcDbVertex
100
AcDb2dVertex
 10
1270.523926
 20
537.665222
 30
0.0
  0
VERTEX
  5
ED
100
AcDbEntity
  8
0
370
     0
390
0
100
AcDbVertex
100
AcDb2dVertex
 10
1272.021851
 20
537.665222
 30
0.0
  0
VERTEX
  5
EE
100
AcDbEntity
  8
0
370
     0
390
0
100
AcDbVertex
100
AcDb2dVertex
 10
1273.519775
 20
537.665222
 30
0.0
  0
VERTEX
  5
EF
100
AcDbEntity
  8
0
370
     0
390
0
100
AcDbVertex
100
AcDb2dVertex
 10
1273.519775
 20
542.068115
 30
0.0
  0
VERTEX
  5
F0
100
AcDbEntity
  8
0
370
     0
390
0
100
AcDbVertex
100
AcDb2dVertex
 10
1273.519775
 20
546.471008
 30
0.0
  0
VERTEX
  5
F1
100
AcDbEntity
  8
0
370
     0
390
0
100
AcDbVertex
100
AcDb2dVertex
 10
1272.021851
 20
546.471008
 30
0.0
  0
VERTEX
  5
F2
100
AcDbEntity
  8
0
370
     0
390
0
100
AcDbVertex
100
AcDb2dVertex
 10
1270.523926
 20
546.471008
 30
0.0
  0
VERTEX
  5
F3
100
AcDbEntity
  8
0
370
     0
390
0
100
AcDbVertex
100
AcDb2dVertex
 10
1270.523926
 20
550.646912
 30
0.0
  0
VERTEX
  5
F4
100
AcDbEntity
  8
0
370
     0
390
0
100
AcDbVertex
100
AcDb2dVertex
 10
1270.523926
 20
554.822876
 30
0.0
  0
VERTEX
  5
F5
100
AcDbEntity
  8
0
370
     0
390
0
100
AcDbVertex
100
AcDb2dVertex
 10
1274.745239
 20
554.822876
 30
0.0
  0
VERTEX
  5
F6
100
AcDbEntity
  8
0
370
     0
390
0
100
AcDbVertex
100
AcDb2dVertex
 10
1278.966675
 20
554.822876
 30
0.0
  0
SEQEND
  5
F7
100
AcDbEntity
  8
0
370
     0
390
0
  0
POLYLINE
  5
F8
100
AcDbEntity
  8
0
370
    35
390
0
 62
     1
100
AcDb2dPolyline
 66
     1
 10
0.0
 20
0.0
 30
0.0
 70
     1
 71
    88
  0
VERTEX
  5
F9
100
AcDbEntity
  8
0
370
     0
390
0
100
AcDbVertex
100
AcDb2dVertex
 10
1224.225586
 20
490.050537
 30
0.0
  0
VERTEX
  5
FA
100
AcDbEntity
  8
0
370
     0
390
0
100
AcDbVertex
100
AcDb2dVertex
 10
1224.225586
 20
488.552673
 30
0.0
  0
VERTEX
  5
FB
100
AcDbEntity
  8
0
370
     0
390
0
100
AcDbVertex
100
AcDb2dVertex
 10
1228.62854
 20
488.552673
 30
0.0
  0
VERTEX
  5
FC
100
AcDbEntity
  8
0
370
     0
390
0
100
AcDbVertex
100
AcDb2dVertex
 10
1233.031372
 20
488.552673
 30
0.0
  0
VERTEX
  5
FD
100
AcDbEntity
  8
0
370
     0
390
0
100
AcDbVertex
100
AcDb2dVertex
 10
1233.031372
 20
490.050537
 30
0.0
  0
VERTEX
  5
FE
100
AcDbEntity
  8
0
370
     0
390
0
100
AcDbVertex
100
AcDb2dVertex
 10
1233.031372
 20
491.548401
 30
0.0
  0
VERTEX
  5
FF
100
AcDbEntity
  8
0
370
     0
390
0
100
AcDbVertex
100
AcDb2dVertex
 10
1237.252686
 20
491.548401
 30
0.0
  0
VERTEX
  5
100
100
AcDbEntity
  8
0
370
     0
390
0
100
AcDbVertex
100
AcDb2dVertex
 10
1241.473999
 20
491.548401
 30
0.0
  0
VERTEX
  5
101
100
AcDbEntity
  8
0
370
     0
390
0
100
AcDbVertex
100
AcDb2dVertex
 10
1241.473999
 20
490.050537
 30
0.0
  0
VERTEX
  5
102
100
AcDbEntity
  8
0
370
     0
390
0
100
AcDbVertex
100
AcDb2dVertex
 10
1241.473999
 20
488.552673
 30
0.0
  0
VERTEX
  5
103
100
AcDbEntity
  8
0
370
     0
390
0
100
AcDbVertex
100
AcDb2dVertex
 10
1245.876953
 20
488.552673
 30
0.0
  0
VERTEX
  5
104
100
AcDbEntity
  8
0
370
     0
390
0
100
AcDbVertex
100
AcDb2dVertex
 10
1250.279785
 20
488.552673
 30
0.0
  0
VERTEX
  5
105
100
AcDbEntity
  8
0
370
     0
390
0
100
AcDbVertex
100
AcDb2dVertex
 10
1250.279785
 20
490.051453
 30
0.0
  0
VERTEX
  5
106
100
AcDbEntity
  8
0
370
     0
390
0
100
AcDbVertex
100
AcDb2dVertex
 10
1250.279785
 20
491.550232
 30
0.0
  0
VERTEX
  5
107
100
AcDbEntity
  8
0
370
     0
390
0
100
AcDbVertex
100
AcDb2dVertex
 10
1254.478394
 20
491.526611
 30
0.0
  0
VERTEX
  5
108
100
AcDbEntity
  8
0
370
     0
390
0
100
AcDbVertex
100
AcDb2dVertex
 10
1258.677002
 20
491.503052
 30
0.0
  0
VERTEX
  5
109
100
AcDbEntity
  8
0
370
     0
390
0
100
AcDbVertex
100
AcDb2dVertex
 10
1258.702026
 20
490.028748
 30
0.0
  0
VERTEX
  5
10A
100
AcDbEntity
  8
0
370
     0
390
0
100
AcDbVertex
100
AcDb2dVertex
 10
1258.726929
 20
488.554443
 30
0.0
  0
VERTEX
  5
10B
100
AcDbEntity
  8
0
370
     0
390
0
100
AcDbVertex
100
AcDb2dVertex
 10
1262.96875
 20
488.530823
 30
0.0
  0
VERTEX
  5
10C
100
AcDbEntity
  8
0
370
     0
390
0
100
AcDbVertex
100
AcDb2dVertex
 10
1267.210449
 20
488.507263
 30
0.0
  0
VERTEX
  5
10D
100
AcDbEntity
  8
0
370
     0
390
0
100
AcDbVertex
100
AcDb2dVertex
 10
1267.233887
 20
483.173889
 30
0.0
  0
VERTEX
  5
10E
100
AcDbEntity
  8
0
370
     0
390
0
100
AcDbVertex
100
AcDb2dVertex
 10
1267.257324
 20
477.840454
 30
0.0
  0
VERTEX
  5
10F
100
AcDbEntity
  8
0
370
     0
390
0
100
AcDbVertex
100
AcDb2dVertex
 10
1265.758667
 20
477.840454
 30
0.0
  0
VERTEX
  5
110
100
AcDbEntity
  8
0
370
     0
390
0
100
AcDbVertex
100
AcDb2dVertex
 10
1264.260132
 20
477.840454
 30
0.0
  0
VERTEX
  5
111
100
AcDbEntity
  8
0
370
     0
390
0
100
AcDbVertex
100
AcDb2dVertex
 10
1264.260132
 20
472.348206
 30
0.0
  0
VERTEX
  5
112
100
AcDbEntity
  8
0
370
     0
390
0
100
AcDbVertex
100
AcDb2dVertex
 10
1264.260132
 20
466.855957
 30
0.0
  0
VERTEX
  5
113
100
AcDbEntity
  8
0
370
     0
390
0
100
AcDbVertex
100
AcDb2dVertex
 10
1265.757935
 20
466.855957
 30
0.0
  0
VERTEX
  5
114
100
AcDbEntity
  8
0
370
     0
390
0
100
AcDbVertex
100
AcDb2dVertex
 10
1267.255859
 20
466.855957
 30
0.0
  0
VERTEX
  5
115
100
AcDbEntity
  8
0
370
     0
390
0
100
AcDbVertex
100
AcDb2dVertex
 10
1267.255859
 20
461.499878
 30
0.0
  0
VERTEX
  5
116
100
AcDbEntity
  8
0
370
     0
390
0
100
AcDbVertex
100
AcDb2dVertex
 10
1267.255859
 20
456.143799
 30
0.0
  0
VERTEX
  5
117
100
AcDbEntity
  8
0
370
     0
390
0
100
AcDbVertex
100
AcDb2dVertex
 10
1265.757935
 20
456.143799
 30
0.0
  0
VERTEX
  5
118
100
AcDbEntity
  8
0
370
     0
390
0
100
AcDbVertex
100
AcDb2dVertex
 10
1264.260132
 20
456.143799
 30
0.0
  0
VERTEX
  5
119
100
AcDbEntity
  8
0
370
     0
390
0
100
AcDbVertex
100
AcDb2dVertex
 10
1264.260132
 20
450.65155
 30
0.0
  0
VERTEX
  5
11A
100
AcDbEntity
  8
0
370
     0
390
0
100
AcDbVertex
100
AcDb2dVertex
 10
1264.260132
 20
445.159302
 30
0.0
  0
VERTEX
  5
11B
100
AcDbEntity
  8
0
370
     0
390
0
100
AcDbVertex
100
AcDb2dVertex
 10
1265.758667
 20
445.159302
 30
0.0
  0
VERTEX
  5
11C
100
AcDbEntity
  8
0
370
     0
390
0
100
AcDbVertex
100
AcDb2dVertex
 10
1267.257324
 20
445.159302
 30
0.0
  0
VERTEX
  5
11D
100
AcDbEntity
  8
0
370
     0
390
0
100
AcDbVertex
100
AcDb2dVertex
 10
1267.233887
 20
439.825867
 30
0.0
  0
VERTEX
  5
11E
100
AcDbEntity
  8
0
370
     0
390
0
100
AcDbVertex
100
AcDb2dVertex
 10
1267.210449
 20
434.492493
 30
0.0
  0
VERTEX
  5
11F
100
AcDbEntity
  8
0
370
     0
390
0
100
AcDbVertex
100
AcDb2dVertex
 10
1262.96875
 20
434.468933
 30
0.0
  0
VERTEX
  5
120
100
AcDbEntity
  8
0
370
     0
390
0
100
AcDbVertex
100
AcDb2dVertex
 10
1258.726929
 20
434.445313
 30
0.0
  0
VERTEX
  5
121
100
AcDbEntity
  8
0
370
     0
390
0
100
AcDbVertex
100
AcDb2dVertex
 10
1258.702026
 20
432.971008
 30
0.0
  0
VERTEX
  5
122
100
AcDbEntity
  8
0
370
     0
390
0
100
AcDbVertex
100
AcDb2dVertex
 10
1258.677002
 20
431.496704
 30
0.0
  0
VERTEX
  5
123
100
AcDbEntity
  8
0
370
     0
390
0
100
AcDbVertex
100
AcDb2dVertex
 10
1254.478394
 20
431.473145
 30
0.0
  0
VERTEX
  5
124
100
AcDbEntity
  8
0
370
     0
390
0
100
AcDbVertex
100
AcDb2dVertex
 10
1250.279785
 20
431.449524
 30
0.0
  0
VERTEX
  5
125
100
AcDbEntity
  8
0
370
     0
390
0
100
AcDbVertex
100
AcDb2dVertex
 10
1250.279785
 20
432.948303
 30
0.0
  0
VERTEX
  5
126
100
AcDbEntity
  8
0
370
     0
390
0
100
AcDbVertex
100
AcDb2dVertex
 10
1250.279785
 20
434.447083
 30
0.0
  0
VERTEX
  5
127
100
AcDbEntity
  8
0
370
     0
390
0
100
AcDbVertex
100
AcDb2dVertex
 10
1245.876953
 20
434.447083
 30
0.0
  0
VERTEX
  5
128
100
AcDbEntity
  8
0
370
     0
390
0
100
AcDbVertex
100
AcDb2dVertex
 10
1241.473999
 20
434.447083
 30
0.0
  0
VERTEX
  5
129
100
AcDbEntity
  8
0
370
     0
390
0
100
AcDbVertex
100
AcDb2dVertex
 10
1241.473999
 20
432.949219
 30
0.0
  0
VERTEX
  5
12A
100
AcDbEntity
  8
0
370
     0
390
0
100
AcDbVertex
100
AcDb2dVertex
 10
1241.473999
 20
431.451355
 30
0.0
  0
VERTEX
  5
12B
100
AcDbEntity
  8
0
370
     0
390
0
100
AcDbVertex
100
AcDb2dVertex
 10
1237.252686
 20
431.451355
 30
0.0
  0
VERTEX
  5
12C
100
AcDbEntity
  8
0
370
     0
390
0
100
AcDbVertex
100
AcDb2dVertex
 10
1233.031372
 20
431.451355
 30
0.0
  0
VERTEX
  5
12D
100
AcDbEntity
  8
0
370
     0
390
0
100
AcDbVertex
100
AcDb2dVertex
 10
1233.031372
 20
432.949219
 30
0.0
  0
VERTEX
  5
12E
100
AcDbEntity
  8
0
370
     0
390
0
100
AcDbVertex
100
AcDb2dVertex
 10
1233.031372
 20
434.447083
 30
0.0
  0
VERTEX
  5
12F
100
AcDbEntity
  8
0
370
     0
390
0
100
AcDbVertex
100
AcDb2dVertex
 10
1228.62854
 20
434.447083
 30
0.0
  0
VERTEX
  5
130
100
AcDbEntity
  8
0
370
     0
390
0
100
AcDbVertex
100
AcDb2dVertex
 10
1224.225586
 20
434.447083
 30
0.0
  0
VERTEX
  5
131
100
AcDbEntity
  8
0
370
     0
390
0
100
AcDbVertex
100
AcDb2dVertex
 10
1224.225586
 20
432.949219
 30
0.0
  0
VERTEX
  5
132
100
AcDbEntity
  8
0
370
     0
390
0
100
AcDbVertex
100
AcDb2dVertex
 10
1224.225586
 20
431.451355
 30
0.0
  0
VERTEX
  5
133
100
AcDbEntity
  8
0
370
     0
390
0
100
AcDbVertex
100
AcDb2dVertex
 10
1220.004272
 20
431.451355
 30
0.0
  0
VERTEX
  5
134
100
AcDbEntity
  8
0
370
     0
390
0
100
AcDbVertex
100
AcDb2dVertex
 10
1215.782959
 20
431.451355
 30
0.0
  0
VERTEX
  5
135
100
AcDbEntity
  8
0
370
     0
390
0
100
AcDbVertex
100
AcDb2dVertex
 10
1215.782959
 20
432.949219
 30
0.0
  0
VERTEX
  5
136
100
AcDbEntity
  8
0
370
     0
390
0
100
AcDbVertex
100
AcDb2dVertex
 10
1215.782959
 20
434.447083
 30
0.0
  0
VERTEX
  5
137
100
AcDbEntity
  8
0
370
     0
390
0
100
AcDbVertex
100
AcDb2dVertex
 10
1211.516235
 20
434.447083
 30
0.0
  0
VERTEX
  5
138
100
AcDbEntity
  8
0
370
     0
390
0
100
AcDbVertex
100
AcDb2dVertex
 10
1207.249512
 20
434.447083
 30
0.0
  0
VERTEX
  5
139
100
AcDbEntity
  8
0
370
     0
390
0
100
AcDbVertex
100
AcDb2dVertex
 10
1207.249512
 20
439.803223
 30
0.0
  0
VERTEX
  5
13A
100
AcDbEntity
  8
0
370
     0
390
0
100
AcDbVertex
100
AcDb2dVertex
 10
1207.249512
 20
445.159302
 30
0.0
  0
VERTEX
  5
13B
100
AcDbEntity
  8
0
370
     0
390
0
100
AcDbVertex
100
AcDb2dVertex
 10
1208.747437
 20
445.159302
 30
0.0
  0
VERTEX
  5
13C
100
AcDbEntity
  8
0
370
     0
390
0
100
AcDbVertex
100
AcDb2dVertex
 10
1210.245361
 20
445.159302
 30
0.0
  0
VERTEX
  5
13D
100
AcDbEntity
  8
0
370
     0
390
0
100
AcDbVertex
100
AcDb2dVertex
 10
1210.245361
 20
450.65155
 30
0.0
  0
VERTEX
  5
13E
100
AcDbEntity
  8
0
370
     0
390
0
100
AcDbVertex
100
AcDb2dVertex
 10
1210.245361
 20
456.143799
 30
0.0
  0
VERTEX
  5
13F
100
AcDbEntity
  8
0
370
     0
390
0
100
AcDbVertex
100
AcDb2dVertex
 10
1208.747437
 20
456.143799
 30
0.0
  0
VERTEX
  5
140
100
AcDbEntity
  8
0
370
     0
390
0
100
AcDbVertex
100
AcDb2dVertex
 10
1207.249512
 20
456.143799
 30
0.0
  0
VERTEX
  5
141
100
AcDbEntity
  8
0
370
     0
390
0
100
AcDbVertex
100
AcDb2dVertex
 10
1207.249512
 20
461.499878
 30
0.0
  0
VERTEX
  5
142
100
AcDbEntity
  8
0
370
     0
390
0
100
AcDbVertex
100
AcDb2dVertex
 10
1207.249512
 20
466.855957
 30
0.0
  0
VERTEX
  5
143
100
AcDbEntity
  8
0
370
     0
390
0
100
AcDbVertex
100
AcDb2dVertex
 10
1208.747437
 20
466.855957
 30
0.0
  0
VERTEX
  5
144
100
AcDbEntity
  8
0
370
     0
390
0
100
AcDbVertex
100
AcDb2dVertex
 10
1210.245361
 20
466.855957
 30
0.0
  0
VERTEX
  5
145
100
AcDbEntity
  8
0
370
     0
390
0
100
AcDbVertex
100
AcDb2dVertex
 10
1210.245361
 20
472.348206
 30
0.0
  0
VERTEX
  5
146
100
AcDbEntity
  8
0
370
     0
390
0
100
AcDbVertex
100
AcDb2dVertex
 10
1210.245361
 20
477.840454
 30
0.0
  0
VERTEX
  5
147
100
AcDbEntity
  8
0
370
     0
390
0
100
AcDbVertex
100
AcDb2dVertex
 10
1208.747437
 20
477.840454
 30
0.0
  0
VERTEX
  5
148
100
AcDbEntity
  8
0
370
     0
390
0
100
AcDbVertex
100
AcDb2dVertex
 10
1207.249512
 20
477.840454
 30
0.0
  0
VERTEX
  5
149
100
AcDbEntity
  8
0
370
     0
390
0
100
AcDbVertex
100
AcDb2dVertex
 10
1207.249512
 20
483.196533
 30
0.0
  0
VERTEX
  5
14A
100
AcDbEntity
  8
0
370
     0
390
0
100
AcDbVertex
100
AcDb2dVertex
 10
1207.249512
 20
488.552673
 30
0.0
  0
VERTEX
  5
14B
100
AcDbEntity
  8
0
370
     0
390
0
100
AcDbVertex
100
AcDb2dVertex
 10
1211.516235
 20
488.552673
 30
0.0
  0
VERTEX
  5
14C
100
AcDbEntity
  8
0
370
     0
390
0
100
AcDbVertex
100
AcDb2dVertex
 10
1215.782959
 20
488.552673
 30
0.0
  0
VERTEX
  5
14D
100
AcDbEntity
  8
0
370
     0
390
0
100
AcDbVertex
100
AcDb2dVertex
 10
1215.782959
 20
490.050537
 30
0.0
  0
VERTEX
  5
14E
100
AcDbEntity
  8
0
370
     0
390
0
100
AcDbVertex
100
AcDb2dVertex
 10
1215.782959
 20
491.548401
 30
0.0
  0
VERTEX
  5
14F
100
AcDbEntity
  8
0
370
     0
390
0
100
AcDbVertex
100
AcDb2dVertex
 10
1220.004272
 20
491.548401
 30
0.0
  0
VERTEX
  5
150
100
AcDbEntity
  8
0
370
     0
390
0
100
AcDbVertex
100
AcDb2dVertex
 10
1224.225586
 20
491.548401
 30
0.0
  0
SEQEND
  5
151
100
AcDbEntity
  8
0
370
     0
390
0
  0
LINE
  5
152
100
AcDbEntity
  8
0
370
    35
390
0
 62
     1
 48
0.037447
100
AcDbLine
 10
1287.5
 20
490.050537
 30
0.0
 11
1287.5
 21
488.552673
 31
0.0
210
0.0
220
0.0
230
1.0
  0
LINE
  5
153
100
AcDbEntity
  8
0
370
    35
390
0
 62
     1
 48
0.110074
100
AcDbLine
 10
1287.5
 20
488.552673
 30
0.0
 11
1291.902954
 21
488.552673
 31
0.0
210
0.0
220
0.0
230
1.0
  0
LINE
  5
154
100
AcDbEntity
  8
0
370
    35
390
0
 62
     1
 48
0.110071
100
AcDbLine
 10
1291.902954
 20
488.552673
 30
0.0
 11
1296.305786
 21
488.552673
 31
0.0
210
0.0
220
0.0
230
1.0
  0
LINE
  5
155
100
AcDbEntity
  8
0
370
    35
390
0
 62
     1
 48
0.037447
100
AcDbLine
 10
1296.305786
 20
488.552673
 30
0.0
 11
1296.305786
 21
490.050537
 31
0.0
210
0.0
220
0.0
230
1.0
  0
LINE
  5
156
100
AcDbEntity
  8
0
370
    35
390
0
 62
     1
 48
0.037447
100
AcDbLine
 10
1296.305786
 20
490.050537
 30
0.0
 11
1296.305786
 21
491.548401
 31
0.0
210
0.0
220
0.0
230
1.0
  0
LINE
  5
157
100
AcDbEntity
  8
0
370
    35
390
0
 62
     1
 48
0.105533
100
AcDbLine
 10
1296.305786
 20
491.548401
 30
0.0
 11
1300.5271
 21
491.548401
 31
0.0
210
0.0
220
0.0
230
1.0
  0
LINE
  5
158
100
AcDbEntity
  8
0
370
    35
390
0
 62
     1
 48
0.105533
100
AcDbLine
 10
1300.5271
 20
491.548401
 30
0.0
 11
1304.748413
 21
491.548401
 31
0.0
210
0.0
220
0.0
230
1.0
  0
LINE
  5
159
100
AcDbEntity
  8
0
370
    35
390
0
 62
     1
 48
0.037447
100
AcDbLine
 10
1304.748413
 20
491.548401
 30
0.0
 11
1304.748413
 21
490.050537
 31
0.0
210
0.0
220
0.0
230
1.0
  0
LINE
  5
15A
100
AcDbEntity
  8
0
370
    35
390
0
 62
     1
 48
0.037447
100
AcDbLine
 10
1304.748413
 20
490.050537
 30
0.0
 11
1304.748413
 21
488.552673
 31
0.0
210
0.0
220
0.0
230
1.0
  0
LINE
  5
15B
100
AcDbEntity
  8
0
370
    35
390
0
 62
     1
 48
0.110074
100
AcDbLine
 10
1304.748413
 20
488.552673
 30
0.0
 11
1309.151367
 21
488.552673
 31
0.0
210
0.0
220
0.0
230
1.0
  0
LINE
  5
15C
100
AcDbEntity
  8
0
370
    35
390
0
 62
     1
 48
0.110071
100
AcDbLine
 10
1309.151367
 20
488.552673
 30
0.0
 11
1313.554199
 21
488.552673
 31
0.0
210
0.0
220
0.0
230
1.0
  0
LINE
  5
15D
100
AcDbEntity
  8
0
370
    35
390
0
 62
     1
 48
0.037447
100
AcDbLine
 10
1313.554199
 20
488.552673
 30
0.0
 11
1313.554199
 21
490.050537
 31
0.0
210
0.0
220
0.0
230
1.0
  0
LINE
  5
15E
100
AcDbEntity
  8
0
370
    35
390
0
 62
     1
 48
0.037447
100
AcDbLine
 10
1313.554199
 20
490.050537
 30
0.0
 11
1313.554199
 21
491.548401
 31
0.0
210
0.0
220
0.0
230
1.0
  0
LINE
  5
15F
100
AcDbEntity
  8
0
370
    35
390
0
 62
     1
 48
0.105533
100
AcDbLine
 10
1313.554199
 20
491.548401
 30
0.0
 11
1317.775513
 21
491.548401
 31
0.0
210
0.0
220
0.0
230
1.0
  0
LINE
  5
160
100
AcDbEntity
  8
0
370
    35
390
0
 62
     1
 48
0.105533
100
AcDbLine
 10
1317.775513
 20
491.548401
 30
0.0
 11
1321.996826
 21
491.548401
 31
0.0
210
0.0
220
0.0
230
1.0
  0
LINE
  5
161
100
AcDbEntity
  8
0
370
    35
390
0
 62
     1
 48
0.037447
100
AcDbLine
 10
1321.996826
 20
491.548401
 30
0.0
 11
1321.996826
 21
490.050537
 31
0.0
210
0.0
220
0.0
230
1.0
  0
LINE
  5
162
100
AcDbEntity
  8
0
370
    35
390
0
 62
     1
 48
0.037447
100
AcDbLine
 10
1321.996826
 20
490.050537
 30
0.0
 11
1321.996826
 21
488.552673
 31
0.0
210
0.0
220
0.0
230
1.0
  0
LINE
  5
163
100
AcDbEntity
  8
0
370
    35
390
0
 62
     1
 48
0.106668
100
AcDbLine
 10
1321.996826
 20
488.552673
 30
0.0
 11
1326.26355
 21
488.552673
 31
0.0
210
0.0
220
0.0
230
1.0
  0
LINE
  5
164
100
AcDbEntity
  8
0
370
    35
390
0
 62
     1
 48
0.106668
100
AcDbLine
 10
1326.26355
 20
488.552673
 30
0.0
 11
1330.530273
 21
488.552673
 31
0.0
210
0.0
220
0.0
230
1.0
  0
LINE
  5
165
100
AcDbEntity
  8
0
370
    35
390
0
 62
     1
 48
0.133904
100
AcDbLine
 10
1330.530273
 20
488.552673
 30
0.0
 11
1330.530273
 21
483.196533
 31
0.0
210
0.0
220
0.0
230
1.0
  0
LINE
  5
166
100
AcDbEntity
  8
0
370
    35
390
0
 62
     1
 48
0.133902
100
AcDbLine
 10
1330.530273
 20
483.196533
 30
0.0
 11
1330.530273
 21
477.840454
 31
0.0
210
0.0
220
0.0
230
1.0
  0
LINE
  5
167
100
AcDbEntity
  8
0
370
    35
390
0
 62
     1
 48
0.037448
100
AcDbLine
 10
1330.530273
 20
477.840454
 30
0.0
 11
1329.032349
 21
477.840454
 31
0.0
210
0.0
220
0.0
230
1.0
  0
LINE
  5
168
100
AcDbEntity
  8
0
370
    35
390
0
 62
     1
 48
0.037445
100
AcDbLine
 10
1329.032349
 20
477.840454
 30
0.0
 11
1327.534546
 21
477.840454
 31
0.0
210
0.0
220
0.0
230
1.0
  0
LINE
  5
169
100
AcDbEntity
  8
0
370
    35
390
0
 62
     1
 48
0.137306
100
AcDbLine
 10
1327.534546
 20
477.840454
 30
0.0
 11
1327.534546
 21
472.348206
 31
0.0
210
0.0
220
0.0
230
1.0
  0
LINE
  5
16A
100
AcDbEntity
  8
0
370
    35
390
0
 62
     1
 48
0.137306
100
AcDbLine
 10
1327.534546
 20
472.348206
 30
0.0
 11
1327.534546
 21
466.855957
 31
0.0
210
0.0
220
0.0
230
1.0
  0
LINE
  5
16B
100
AcDbEntity
  8
0
370
    35
390
0
 62
     1
 48
0.037445
100
AcDbLine
 10
1327.534546
 20
466.855957
 30
0.0
 11
1329.032349
 21
466.855957
 31
0.0
210
0.0
220
0.0
230
1.0
  0
LINE
  5
16C
100
AcDbEntity
  8
0
370
    35
390
0
 62
     1
 48
0.037448
100
AcDbLine
 10
1329.032349
 20
466.855957
 30
0.0
 11
1330.530273
 21
466.855957
 31
0.0
210
0.0
220
0.0
230
1.0
  0
LINE
  5
16D
100
AcDbEntity
  8
0
370
    35
390
0
 62
     1
 48
0.133902
100
AcDbLine
 10
1330.530273
 20
466.855957
 30
0.0
 11
1330.530273
 21
461.499878
 31
0.0
210
0.0
220
0.0
230
1.0
  0
LINE
  5
16E
100
AcDbEntity
  8
0
370
    35
390
0
 62
     1
 48
0.133902
100
AcDbLine
 10
1330.530273
 20
461.499878
 30
0.0
 11
1330.530273
 21
456.143799
 31
0.0
210
0.0
220
0.0
230
1.0
  0
LINE
  5
16F
100
AcDbEntity
  8
0
370
    35
390
0
 62
     1
 48
0.037448
100
AcDbLine
 10
1330.530273
 20
456.143799
 30
0.0
 11
1329.032349
 21
456.143799
 31
0.0
210
0.0
220
0.0
230
1.0
  0
LINE
  5
170
100
AcDbEntity
  8
0
370
    35
390
0
 62
     1
 48
0.037445
100
AcDbLine
 10
1329.032349
 20
456.143799
 30
0.0
 11
1327.534546
 21
456.143799
 31
0.0
210
0.0
220
0.0
230
1.0
  0
LINE
  5
171
100
AcDbEntity
  8
0
370
    35
390
0
 62
     1
 48
0.137306
100
AcDbLine
 10
1327.534546
 20
456.143799
 30
0.0
 11
1327.534546
 21
450.65155
 31
0.0
210
0.0
220
0.0
230
1.0
  0
LINE
  5
172
100
AcDbEntity
  8
0
370
    35
390
0
 62
     1
 48
0.137306
100
AcDbLine
 10
1327.534546
 20
450.65155
 30
0.0
 11
1327.534546
 21
445.159302
 31
0.0
210
0.0
220
0.0
230
1.0
  0
LINE
  5
173
100
AcDbEntity
  8
0
370
    35
390
0
 62
     1
 48
0.037445
100
AcDbLine
 10
1327.534546
 20
445.159302
 30
0.0
 11
1329.032349
 21
445.159302
 31
0.0
210
0.0
220
0.0
230
1.0
  0
LINE
  5
174
100
AcDbEntity
  8
0
370
    35
390
0
 62
     1
 48
0.037448
100
AcDbLine
 10
1329.032349
 20
445.159302
 30
0.0
 11
1330.530273
 21
445.159302
 31
0.0
210
0.0
220
0.0
230
1.0
  0
LINE
  5
175
100
AcDbEntity
  8
0
370
    35
390
0
 62
     1
 48
0.133902
100
AcDbLine
 10
1330.530273
 20
445.159302
 30
0.0
 11
1330.530273
 21
439.803223
 31
0.0
210
0.0
220
0.0
230
1.0
  0
LINE
  5
176
100
AcDbEntity
  8
0
370
    35
390
0
 62
     1
 48
0.133904
100
AcDbLine
 10
1330.530273
 20
439.803223
 30
0.0
 11
1330.530273
 21
434.447083
 31
0.0
210
0.0
220
0.0
230
1.0
  0
LINE
  5
177
100
AcDbEntity
  8
0
370
    35
390
0
 62
     1
 48
0.106668
100
AcDbLine
 10
1330.530273
 20
434.447083
 30
0.0
 11
1326.26355
 21
434.447083
 31
0.0
210
0.0
220
0.0
230
1.0
  0
LINE
  5
178
100
AcDbEntity
  8
0
370
    35
390
0
 62
     1
 48
0.106668
100
AcDbLine
 10
1326.26355
 20
434.447083
 30
0.0
 11
1321.996826
 21
434.447083
 31
0.0
210
0.0
220
0.0
230
1.0
  0
LINE
  5
179
100
AcDbEntity
  8
0
370
    35
390
0
 62
     1
 48
0.037447
100
AcDbLine
 10
1321.996826
 20
434.447083
 30
0.0
 11
1321.996826
 21
432.949219
 31
0.0
210
0.0
220
0.0
230
1.0
  0
LINE
  5
17A
100
AcDbEntity
  8
0
370
    35
390
0
 62
     1
 48
0.037447
100
AcDbLine
 10
1321.996826
 20
432.949219
 30
0.0
 11
1321.996826
 21
431.451355
 31
0.0
210
0.0
220
0.0
230
1.0
  0
LINE
  5
17B
100
AcDbEntity
  8
0
370
    35
390
0
 62
     1
 48
0.105533
100
AcDbLine
 10
1321.996826
 20
431.451355
 30
0.0
 11
1317.775513
 21
431.451355
 31
0.0
210
0.0
220
0.0
230
1.0
  0
LINE
  5
17C
100
AcDbEntity
  8
0
370
    35
390
0
 62
     1
 48
0.105533
100
AcDbLine
 10
1317.775513
 20
431.451355
 30
0.0
 11
1313.554199
 21
431.451355
 31
0.0
210
0.0
220
0.0
230
1.0
  0
LINE
  5
17D
100
AcDbEntity
  8
0
370
    35
390
0
 62
     1
 48
0.037447
100
AcDbLine
 10
1313.554199
 20
431.451355
 30
0.0
 11
1313.554199
 21
432.949219
 31
0.0
210
0.0
220
0.0
230
1.0
  0
LINE
  5
17E
100
AcDbEntity
  8
0
370
    35
390
0
 62
     1
 48
0.037447
100
AcDbLine
 10
1313.554199
 20
432.949219
 30
0.0
 11
1313.554199
 21
434.447083
 31
0.0
210
0.0
220
0.0
230
1.0
  0
LINE
  5
17F
100
AcDbEntity
  8
0
370
    35
390
0
 62
     1
 48
0.110071
100
AcDbLine
 10
1313.554199
 20
434.447083
 30
0.0
 11
1309.151367
 21
434.447083
 31
0.0
210
0.0
220
0.0
230
1.0
  0
LINE
  5
180
100
AcDbEntity
  8
0
370
    35
390
0
 62
     1
 48
0.110074
100
AcDbLine
 10
1309.151367
 20
434.447083
 30
0.0
 11
1304.748413
 21
434.447083
 31
0.0
210
0.0
220
0.0
230
1.0
  0
LINE
  5
181
100
AcDbEntity
  8
0
370
    35
390
0
 62
     1
 48
0.037447
100
AcDbLine
 10
1304.748413
 20
434.447083
 30
0.0
 11
1304.748413
 21
432.949219
 31
0.0
210
0.0
220
0.0
230
1.0
  0
LINE
  5
182
100
AcDbEntity
  8
0
370
    35
390
0
 62
     1
 48
0.037447
100
AcDbLine
 10
1304.748413
 20
432.949219
 30
0.0
 11
1304.748413
 21
431.451355
 31
0.0
210
0.0
220
0.0
230
1.0
  0
LINE
  5
183
100
AcDbEntity
  8
0
370
    35
390
0
 62
     1
 48
0.105533
100
AcDbLine
 10
1304.748413
 20
431.451355
 30
0.0
 11
1300.5271
 21
431.451355
 31
0.0
210
0.0
220
0.0
230
1.0
  0
LINE
  5
184
100
AcDbEntity
  8
0
370
    35
390
0
 62
     1
 48
0.105533
100
AcDbLine
 10
1300.5271
 20
431.451355
 30
0.0
 11
1296.305786
 21
431.451355
 31
0.0
210
0.0
220
0.0
230
1.0
  0
LINE
  5
185
100
AcDbEntity
  8
0
370
    35
390
0
 62
     1
 48
0.037447
100
AcDbLine
 10
1296.305786
 20
431.451355
 30
0.0
 11
1296.305786
 21
432.949219
 31
0.0
210
0.0
220
0.0
230
1.0
  0
LINE
  5
186
100
AcDbEntity
  8
0
370
    35
390
0
 62
     1
 48
0.037447
100
AcDbLine
 10
1296.305786
 20
432.949219
 30
0.0
 11
1296.305786
 21
434.447083
 31
0.0
210
0.0
220
0.0
230
1.0
  0
LINE
  5
187
100
AcDbEntity
  8
0
370
    35
390
0
 62
     1
 48
0.042758
100
AcDbLine
 10
1296.305786
 20
434.447083
 30
0.0
 11
1294.595459
 21
434.447083
 31
0.0
210
0.0
220
0.0
230
1.0
  0
LINE
  5
188
100
AcDbEntity
  8
0
370
    35
390
0
 62
     1
 48
0.043814
100
AcDbLine
 10
1289.252563
 20
434.447083
 30
0.0
 11
1287.5
 21
434.447083
 31
0.0
210
0.0
220
0.0
230
1.0
  0
LINE
  5
189
100
AcDbEntity
  8
0
370
    35
390
0
 62
     1
 48
0.037469
100
AcDbLine
 10
1287.5
 20
434.447083
 30
0.0
 11
1287.5
 21
432.948303
 31
0.0
210
0.0
220
0.0
230
1.0
  0
LINE
  5
18A
100
AcDbEntity
  8
0
370
    35
390
0
 62
     1
 48
0.037469
100
AcDbLine
 10
1287.5
 20
432.948303
 30
0.0
 11
1287.5
 21
431.449524
 31
0.0
210
0.0
220
0.0
230
1.0
  0
LINE
  5
18B
100
AcDbEntity
  8
0
370
    35
390
0
 62
     1
 48
0.104967
100
AcDbLine
 10
1287.5
 20
431.449524
 30
0.0
 11
1283.301392
 21
431.473145
 31
0.0
210
0.0
220
0.0
230
1.0
  0
LINE
  5
18C
100
AcDbEntity
  8
0
370
    35
390
0
 62
     1
 48
0.104967
100
AcDbLine
 10
1283.301392
 20
431.473145
 30
0.0
 11
1279.102783
 21
431.496704
 31
0.0
210
0.0
220
0.0
230
1.0
  0
LINE
  5
18D
100
AcDbEntity
  8
0
370
    35
390
0
 62
     1
 48
0.036863
100
AcDbLine
 10
1279.102783
 20
431.496704
 30
0.0
 11
1279.077881
 21
432.971008
 31
0.0
210
0.0
220
0.0
230
1.0
  0
LINE
  5
18E
100
AcDbEntity
  8
0
370
    35
390
0
 62
     1
 48
0.036863
100
AcDbLine
 10
1279.077881
 20
432.971008
 30
0.0
 11
1279.052856
 21
434.445313
 31
0.0
210
0.0
220
0.0
230
1.0
  0
LINE
  5
18F
100
AcDbEntity
  8
0
370
    35
390
0
 62
     1
 48
0.106044
100
AcDbLine
 10
1279.052856
 20
434.445313
 30
0.0
 11
1274.811157
 21
434.468933
 31
0.0
210
0.0
220
0.0
230
1.0
  0
LINE
  5
190
100
AcDbEntity
  8
0
370
    35
390
0
 62
     1
 48
0.106047
100
AcDbLine
 10
1274.811157
 20
434.468933
 30
0.0
 11
1270.569336
 21
434.492493
 31
0.0
210
0.0
220
0.0
230
1.0
  0
LINE
  5
191
100
AcDbEntity
  8
0
370
    35
390
0
 62
     1
 48
0.133336
100
AcDbLine
 10
1270.569336
 20
434.492493
 30
0.0
 11
1270.545898
 21
439.825867
 31
0.0
210
0.0
220
0.0
230
1.0
  0
LINE
  5
192
100
AcDbEntity
  8
0
370
    35
390
0
 62
     1
 48
0.133337
100
AcDbLine
 10
1270.545898
 20
439.825867
 30
0.0
 11
1270.522583
 21
445.159302
 31
0.0
210
0.0
220
0.0
230
1.0
  0
LINE
  5
193
100
AcDbEntity
  8
0
370
    35
390
0
 62
     1
 48
0.037463
100
AcDbLine
 10
1270.522583
 20
445.159302
 30
0.0
 11
1272.021118
 21
445.159302
 31
0.0
210
0.0
220
0.0
230
1.0
  0
LINE
  5
194
100
AcDbEntity
  8
0
370
    35
390
0
 62
     1
 48
0.037466
100
AcDbLine
 10
1272.021118
 20
445.159302
 30
0.0
 11
1273.519775
 21
445.159302
 31
0.0
210
0.0
220
0.0
230
1.0
  0
LINE
  5
195
100
AcDbEntity
  8
0
370
    35
390
0
 62
     1
 48
0.137306
100
AcDbLine
 10
1273.519775
 20
445.159302
 30
0.0
 11
1273.519775
 21
450.65155
 31
0.0
210
0.0
220
0.0
230
1.0
  0
LINE
  5
196
100
AcDbEntity
  8
0
370
    35
390
0
 62
     1
 48
0.137306
100
AcDbLine
 10
1273.519775
 20
450.65155
 30
0.0
 11
1273.519775
 21
456.143799
 31
0.0
210
0.0
220
0.0
230
1.0
  0
LINE
  5
197
100
AcDbEntity
  8
0
370
    35
390
0
 62
     1
 48
0.037448
100
AcDbLine
 10
1273.519775
 20
456.143799
 30
0.0
 11
1272.021851
 21
456.143799
 31
0.0
210
0.0
220
0.0
230
1.0
  0
LINE
  5
198
100
AcDbEntity
  8
0
370
    35
390
0
 62
     1
 48
0.037448
100
AcDbLine
 10
1272.021851
 20
456.143799
 30
0.0
 11
1270.523926
 21
456.143799
 31
0.0
210
0.0
220
0.0
230
1.0
  0
LINE
  5
199
100
AcDbEntity
  8
0
370
    35
390
0
 62
     1
 48
0.133902
100
AcDbLine
 10
1270.523926
 20
456.143799
 30
0.0
 11
1270.523926
 21
461.499878
 31
0.0
210
0.0
220
0.0
230
1.0
  0
LINE
  5
19A
100
AcDbEntity
  8
0
370
    35
390
0
 62
     1
 48
0.133902
100
AcDbLine
 10
1270.523926
 20
461.499878
 30
0.0
 11
1270.523926
 21
466.855957
 31
0.0
210
0.0
220
0.0
230
1.0
  0
LINE
  5
19B
100
AcDbEntity
  8
0
370
    35
390
0
 62
     1
 48
0.037448
100
AcDbLine
 10
1270.523926
 20
466.855957
 30
0.0
 11
1272.021851
 21
466.855957
 31
0.0
210
0.0
220
0.0
230
1.0
  0
LINE
  5
19C
100
AcDbEntity
  8
0
370
    35
390
0
 62
     1
 48
0.037448
100
AcDbLine
 10
1272.021851
 20
466.855957
 30
0.0
 11
1273.519775
 21
466.855957
 31
0.0
210
0.0
220
0.0
230
1.0
  0
LINE
  5
19D
100
AcDbEntity
  8
0
370
    35
390
0
 62
     1
 48
0.137306
100
AcDbLine
 10
1273.519775
 20
466.855957
 30
0.0
 11
1273.519775
 21
472.348206
 31
0.0
210
0.0
220
0.0
230
1.0
  0
LINE
  5
19E
100
AcDbEntity
  8
0
370
    35
390
0
 62
     1
 48
0.137306
100
AcDbLine
 10
1273.519775
 20
472.348206
 30
0.0
 11
1273.519775
 21
477.840454
 31
0.0
210
0.0
220
0.0
230
1.0
  0
LINE
  5
19F
100
AcDbEntity
  8
0
370
    35
390
0
 62
     1
 48
0.037466
100
AcDbLine
 10
1273.519775
 20
477.840454
 30
0.0
 11
1272.021118
 21
477.840454
 31
0.0
210
0.0
220
0.0
230
1.0
  0
LINE
  5
1A0
100
AcDbEntity
  8
0
370
    35
390
0
 62
     1
 48
0.037463
100
AcDbLine
 10
1272.021118
 20
477.840454
 30
0.0
 11
1270.522583
 21
477.840454
 31
0.0
210
0.0
220
0.0
230
1.0
  0
LINE
  5
1A1
100
AcDbEntity
  8
0
370
    35
390
0
 62
     1
 48
0.133337
100
AcDbLine
 10
1270.522583
 20
477.840454
 30
0.0
 11
1270.545898
 21
483.173889
 31
0.0
210
0.0
220
0.0
230
1.0
  0
LINE
  5
1A2
100
AcDbEntity
  8
0
370
    35
390
0
 62
     1
 48
0.133336
100
AcDbLine
 10
1270.545898
 20
483.173889
 30
0.0
 11
1270.569336
 21
488.507263
 31
0.0
210
0.0
220
0.0
230
1.0
  0
LINE
  5
1A3
100
AcDbEntity
  8
0
370
    35
390
0
 62
     1
 48
0.106102
100
AcDbLine
 10
1270.569336
 20
488.507263
 30
0.0
 11
1274.813354
 21
488.530823
 31
0.0
210
0.0
220
0.0
230
1.0
  0
LINE
  5
1A4
100
AcDbEntity
  8
0
370
    35
390
0
 62
     1
 48
0.106102
100
AcDbLine
 10
1274.813354
 20
488.530823
 30
0.0
 11
1279.057373
 21
488.554443
 31
0.0
210
0.0
220
0.0
230
1.0
  0
LINE
  5
1A5
100
AcDbEntity
  8
0
370
    35
390
0
 62
     1
 48
0.035912
100
AcDbLine
 10
1279.057373
 20
488.554443
 30
0.0
 11
1279.057373
 21
489.990906
 31
0.0
210
0.0
220
0.0
230
1.0
  0
ARC
  5
1A6
100
AcDbEntity
  8
0
370
    35
390
0
 62
     1
100
AcDbCircle
 10
1314.290771
 20
489.990906
 30
0.0
 40
35.233391
210
0.0
220
0.0
230
1.0
100
AcDbArc
 50
179.097436
 51
179.99995
  0
ARC
  5
1A7
100
AcDbEntity
  8
0
370
    35
390
0
 62
     1
100
AcDbCircle
 10
1298.42981
 20
490.240723
 30
0.0
 40
19.370457
210
0.0
220
0.0
230
1.0
100
AcDbArc
 50
177.684926
 51
179.097355
  0
ARC
  5
1A8
100
AcDbEntity
  8
0
370
    35
390
0
 62
     1
100
AcDbCircle
 10
1327.266724
 20
489.07489
 30
0.0
 40
48.230957
210
0.0
220
0.0
230
1.0
100
AcDbArc
 50
177.197893
 51
177.684912
  0
ARC
  5
1A9
100
AcDbEntity
  8
0
370
    35
390
0
 62
     1
100
AcDbCircle
 10
1279.177124
 20
491.42865
 30
0.0
 40
0.083791
210
0.0
220
0.0
230
1.0
100
AcDbArc
 50
134.999932
 51
177.197975
  0
ARC
  5
1AA
100
AcDbEntity
  8
0
370
    35
390
0
 62
     1
100
AcDbCircle
 10
1279.177734
 20
491.428101
 30
0.0
 40
0.084592
210
0.0
220
0.0
230
1.0
100
AcDbArc
 50
90.885946
 51
135.000041
  0
LINE
  5
1AB
100
AcDbEntity
  8
0
370
    35
390
0
 62
     1
 48
0.030167
100
AcDbLine
 10
1279.176392
 20
491.512695
 30
0.0
 11
1280.382935
 21
491.53064
 31
0.0
210
0.0
220
0.0
230
1.0
  0
ARC
  5
1AC
100
AcDbEntity
  8
0
370
    35
390
0
 62
     1
100
AcDbCircle
 10
1282.571289
 20
338.888855
 30
0.0
 40
152.657486
210
0.0
220
0.0
230
1.0
100
AcDbArc
 50
90.312128
 51
90.821374
  0
ARC
  5
1AD
100
AcDbEntity
  8
0
370
    35
390
0
 62
     1
100
AcDbCircle
 10
1283.339233
 20
197.935059
 30
0.0
 40
293.613342
210
0.0
220
0.0
230
1.0
100
AcDbArc
 50
89.999989
 51
90.312135
  0
LINE
  5
1AE
100
AcDbEntity
  8
0
370
    35
390
0
 62
     1
 48
0.104019
100
AcDbLine
 10
1283.339233
 20
491.548401
 30
0.0
 11
1287.5
 21
491.548401
 31
0.0
210
0.0
220
0.0
230
1.0
  0
LINE
  5
1AF
100
AcDbEntity
  8
0
370
    35
390
0
 62
     1
 48
0.037447
100
AcDbLine
 10
1287.5
 20
491.548401
 30
0.0
 11
1287.5
 21
490.050537
 31
0.0
210
0.0
220
0.0
230
1.0
  0
POLYLINE
  5
1B0
100
AcDbEntity
  8
0
370
    35
390
0
 62
     1
100
AcDb2dPolyline
 66
     1
 10
0.0
 20
0.0
 30
0.0
 70
     1
 71
    88
  0
VERTEX
  5
1B1
100
AcDbEntity
  8
0
370
     0
390
0
100
AcDbVertex
100
AcDb2dVertex
 10
1224.225586
 20
426.685303
 30
0.0
  0
VERTEX
  5
1B2
100
AcDbEntity
  8
0
370
     0
390
0
100
AcDbVertex
100
AcDb2dVertex
 10
1224.225586
 20
425.187439
 30
0.0
  0
VERTEX
  5
1B3
100
AcDbEntity
  8
0
370
     0
390
0
100
AcDbVertex
100
AcDb2dVertex
 10
1228.62854
 20
425.187439
 30
0.0
  0
VERTEX
  5
1B4
100
AcDbEntity
  8
0
370
     0
390
0
100
AcDbVertex
100
AcDb2dVertex
 10
1233.031372
 20
425.187439
 30
0.0
  0
VERTEX
  5
1B5
100
AcDbEntity
  8
0
370
     0
390
0
100
AcDbVertex
100
AcDb2dVertex
 10
1233.031372
 20
426.685303
 30
0.0
  0
VERTEX
  5
1B6
100
AcDbEntity
  8
0
370
     0
390
0
100
AcDbVertex
100
AcDb2dVertex
 10
1233.031372
 20
428.183228
 30
0.0
  0
VERTEX
  5
1B7
100
AcDbEntity
  8
0
370
     0
390
0
100
AcDbVertex
100
AcDb2dVertex
 10
1237.252686
 20
428.183228
 30
0.0
  0
VERTEX
  5
1B8
100
AcDbEntity
  8
0
370
     0
390
0
100
AcDbVertex
100
AcDb2dVertex
 10
1241.473999
 20
428.183228
 30
0.0
  0
VERTEX
  5
1B9
100
AcDbEntity
  8
0
370
     0
390
0
100
AcDbVertex
100
AcDb2dVertex
 10
1241.473999
 20
426.685303
 30
0.0
  0
VERTEX
  5
1BA
100
AcDbEntity
  8
0
370
     0
390
0
100
AcDbVertex
100
AcDb2dVertex
 10
1241.473999
 20
425.187439
 30
0.0
  0
VERTEX
  5
1BB
100
AcDbEntity
  8
0
370
     0
390
0
100
AcDbVertex
100
AcDb2dVertex
 10
1245.876953
 20
425.187439
 30
0.0
  0
VERTEX
  5
1BC
100
AcDbEntity
  8
0
370
     0
390
0
100
AcDbVertex
100
AcDb2dVertex
 10
1250.279785
 20
425.187439
 30
0.0
  0
VERTEX
  5
1BD
100
AcDbEntity
  8
0
370
     0
390
0
100
AcDbVertex
100
AcDb2dVertex
 10
1250.279785
 20
426.685303
 30
0.0
  0
VERTEX
  5
1BE
100
AcDbEntity
  8
0
370
     0
390
0
100
AcDbVertex
100
AcDb2dVertex
 10
1250.279785
 20
428.183228
 30
0.0
  0
VERTEX
  5
1BF
100
AcDbEntity
  8
0
370
     0
390
0
100
AcDbVertex
100
AcDb2dVertex
 10
1254.501099
 20
428.183228
 30
0.0
  0
VERTEX
  5
1C0
100
AcDbEntity
  8
0
370
     0
390
0
100
AcDbVertex
100
AcDb2dVertex
 10
1258.722412
 20
428.183228
 30
0.0
  0
VERTEX
  5
1C1
100
AcDbEntity
  8
0
370
     0
390
0
100
AcDbVertex
100
AcDb2dVertex
 10
1258.722412
 20
426.685303
 30
0.0
  0
VERTEX
  5
1C2
100
AcDbEntity
  8
0
370
     0
390
0
100
AcDbVertex
100
AcDb2dVertex
 10
1258.722412
 20
425.187439
 30
0.0
  0
VERTEX
  5
1C3
100
AcDbEntity
  8
0
370
     0
390
0
100
AcDbVertex
100
AcDb2dVertex
 10
1261.491211
 20
425.187439
 30
0.0
  0
VERTEX
  5
1C4
100
AcDbEntity
  8
0
370
     0
390
0
100
AcDbVertex
100
AcDb2dVertex
 10
1264.260132
 20
425.187439
 30
0.0
  0
VERTEX
  5
1C5
100
AcDbEntity
  8
0
370
     0
390
0
100
AcDbVertex
100
AcDb2dVertex
 10
1264.260132
 20
419.78595
 30
0.0
  0
VERTEX
  5
1C6
100
AcDbEntity
  8
0
370
     0
390
0
100
AcDbVertex
100
AcDb2dVertex
 10
1264.260132
 20
414.38446
 30
0.0
  0
VERTEX
  5
1C7
100
AcDbEntity
  8
0
370
     0
390
0
100
AcDbVertex
100
AcDb2dVertex
 10
1265.757935
 20
414.38446
 30
0.0
  0
VERTEX
  5
1C8
100
AcDbEntity
  8
0
370
     0
390
0
100
AcDbVertex
100
AcDb2dVertex
 10
1267.255859
 20
414.38446
 30
0.0
  0
VERTEX
  5
1C9
100
AcDbEntity
  8
0
370
     0
390
0
100
AcDbVertex
100
AcDb2dVertex
 10
1267.255859
 20
409.028381
 30
0.0
  0
VERTEX
  5
1CA
100
AcDbEntity
  8
0
370
     0
390
0
100
AcDbVertex
100
AcDb2dVertex
 10
1267.255859
 20
403.672302
 30
0.0
  0
VERTEX
  5
1CB
100
AcDbEntity
  8
0
370
     0
390
0
100
AcDbVertex
100
AcDb2dVertex
 10
1265.757935
 20
403.672302
 30
0.0
  0
VERTEX
  5
1CC
100
AcDbEntity
  8
0
370
     0
390
0
100
AcDbVertex
100
AcDb2dVertex
 10
1264.260132
 20
403.672302
 30
0.0
  0
VERTEX
  5
1CD
100
AcDbEntity
  8
0
370
     0
390
0
100
AcDbVertex
100
AcDb2dVertex
 10
1264.260132
 20
398.180054
 30
0.0
  0
VERTEX
  5
1CE
100
AcDbEntity
  8
0
370
     0
390
0
100
AcDbVertex
100
AcDb2dVertex
 10
1264.260132
 20
392.687805
 30
0.0
  0
VERTEX
  5
1CF
100
AcDbEntity
  8
0
370
     0
390
0
100
AcDbVertex
100
AcDb2dVertex
 10
1265.757935
 20
392.687805
 30
0.0
  0
VERTEX
  5
1D0
100
AcDbEntity
  8
0
370
     0
390
0
100
AcDbVertex
100
AcDb2dVertex
 10
1267.255859
 20
392.687805
 30
0.0
  0
VERTEX
  5
1D1
100
AcDbEntity
  8
0
370
     0
390
0
100
AcDbVertex
100
AcDb2dVertex
 10
1267.255859
 20
387.331726
 30
0.0
  0
VERTEX
  5
1D2
100
AcDbEntity
  8
0
370
     0
390
0
100
AcDbVertex
100
AcDb2dVertex
 10
1267.255859
 20
381.975647
 30
0.0
  0
VERTEX
  5
1D3
100
AcDbEntity
  8
0
370
     0
390
0
100
AcDbVertex
100
AcDb2dVertex
 10
1265.757935
 20
381.975647
 30
0.0
  0
VERTEX
  5
1D4
100
AcDbEntity
  8
0
370
     0
390
0
100
AcDbVertex
100
AcDb2dVertex
 10
1264.260132
 20
381.975647
 30
0.0
  0
VERTEX
  5
1D5
100
AcDbEntity
  8
0
370
     0
390
0
100
AcDbVertex
100
AcDb2dVertex
 10
1264.260132
 20
376.574158
 30
0.0
  0
VERTEX
  5
1D6
100
AcDbEntity
  8
0
370
     0
390
0
100
AcDbVertex
100
AcDb2dVertex
 10
1264.260132
 20
371.172668
 30
0.0
  0
VERTEX
  5
1D7
100
AcDbEntity
  8
0
370
     0
390
0
100
AcDbVertex
100
AcDb2dVertex
 10
1261.491211
 20
371.172668
 30
0.0
  0
VERTEX
  5
1D8
100
AcDbEntity
  8
0
370
     0
390
0
100
AcDbVertex
100
AcDb2dVertex
 10
1258.722412
 20
371.172668
 30
0.0
  0
VERTEX
  5
1D9
100
AcDbEntity
  8
0
370
     0
390
0
100
AcDbVertex
100
AcDb2dVertex
 10
1258.722412
 20
369.674805
 30
0.0
  0
VERTEX
  5
1DA
100
AcDbEntity
  8
0
370
     0
390
0
100
AcDbVertex
100
AcDb2dVertex
 10
1258.722412
 20
368.17688
 30
0.0
  0
VERTEX
  5
1DB
100
AcDbEntity
  8
0
370
     0
390
0
100
AcDbVertex
100
AcDb2dVertex
 10
1254.501099
 20
368.17688
 30
0.0
  0
VERTEX
  5
1DC
100
AcDbEntity
  8
0
370
     0
390
0
100
AcDbVertex
100
AcDb2dVertex
 10
1250.279785
 20
368.17688
 30
0.0
  0
VERTEX
  5
1DD
100
AcDbEntity
  8
0
370
     0
390
0
100
AcDbVertex
100
AcDb2dVertex
 10
1250.279785
 20
369.674805
 30
0.0
  0
VERTEX
  5
1DE
100
AcDbEntity
  8
0
370
     0
390
0
100
AcDbVertex
100
AcDb2dVertex
 10
1250.279785
 20
371.172668
 30
0.0
  0
VERTEX
  5
1DF
100
AcDbEntity
  8
0
370
     0
390
0
100
AcDbVertex
100
AcDb2dVertex
 10
1245.876953
 20
371.172668
 30
0.0
  0
VERTEX
  5
1E0
100
AcDbEntity
  8
0
370
     0
390
0
100
AcDbVertex
100
AcDb2dVertex
 10
1241.473999
 20
371.172668
 30
0.0
  0
VERTEX
  5
1E1
100
AcDbEntity
  8
0
370
     0
390
0
100
AcDbVertex
100
AcDb2dVertex
 10
1241.473999
 20
369.674805
 30
0.0
  0
VERTEX
  5
1E2
100
AcDbEntity
  8
0
370
     0
390
0
100
AcDbVertex
100
AcDb2dVertex
 10
1241.473999
 20
368.17688
 30
0.0
  0
VERTEX
  5
1E3
100
AcDbEntity
  8
0
370
     0
390
0
100
AcDbVertex
100
AcDb2dVertex
 10
1237.252686
 20
368.17688
 30
0.0
  0
VERTEX
  5
1E4
100
AcDbEntity
  8
0
370
     0
390
0
100
AcDbVertex
100
AcDb2dVertex
 10
1233.031372
 20
368.17688
 30
0.0
  0
VERTEX
  5
1E5
100
AcDbEntity
  8
0
370
     0
390
0
100
AcDbVertex
100
AcDb2dVertex
 10
1233.031372
 20
369.674805
 30
0.0
  0
VERTEX
  5
1E6
100
AcDbEntity
  8
0
370
     0
390
0
100
AcDbVertex
100
AcDb2dVertex
 10
1233.031372
 20
371.172668
 30
0.0
  0
VERTEX
  5
1E7
100
AcDbEntity
  8
0
370
     0
390
0
100
AcDbVertex
100
AcDb2dVertex
 10
1228.62854
 20
371.172668
 30
0.0
  0
VERTEX
  5
1E8
100
AcDbEntity
  8
0
370
     0
390
0
100
AcDbVertex
100
AcDb2dVertex
 10
1224.225586
 20
371.172668
 30
0.0
  0
VERTEX
  5
1E9
100
AcDbEntity
  8
0
370
     0
390
0
100
AcDbVertex
100
AcDb2dVertex
 10
1224.225586
 20
369.674805
 30
0.0
  0
VERTEX
  5
1EA
100
AcDbEntity
  8
0
370
     0
390
0
100
AcDbVertex
100
AcDb2dVertex
 10
1224.225586
 20
368.17688
 30
0.0
  0
VERTEX
  5
1EB
100
AcDbEntity
  8
0
370
     0
390
0
100
AcDbVertex
100
AcDb2dVertex
 10
1220.004272
 20
368.17688
 30
0.0
  0
VERTEX
  5
1EC
100
AcDbEntity
  8
0
370
     0
390
0
100
AcDbVertex
100
AcDb2dVertex
 10
1215.782959
 20
368.17688
 30
0.0
  0
VERTEX
  5
1ED
100
AcDbEntity
  8
0
370
     0
390
0
100
AcDbVertex
100
AcDb2dVertex
 10
1215.782959
 20
369.674805
 30
0.0
  0
VERTEX
  5
1EE
100
AcDbEntity
  8
0
370
     0
390
0
100
AcDbVertex
100
AcDb2dVertex
 10
1215.782959
 20
371.172668
 30
0.0
  0
VERTEX
  5
1EF
100
AcDbEntity
  8
0
370
     0
390
0
100
AcDbVertex
100
AcDb2dVertex
 10
1213.01416
 20
371.172668
 30
0.0
  0
VERTEX
  5
1F0
100
AcDbEntity
  8
0
370
     0
390
0
100
AcDbVertex
100
AcDb2dVertex
 10
1210.245361
 20
371.172668
 30
0.0
  0
VERTEX
  5
1F1
100
AcDbEntity
  8
0
370
     0
390
0
100
AcDbVertex
100
AcDb2dVertex
 10
1210.245361
 20
376.574158
 30
0.0
  0
VERTEX
  5
1F2
100
AcDbEntity
  8
0
370
     0
390
0
100
AcDbVertex
100
AcDb2dVertex
 10
1210.245361
 20
381.975647
 30
0.0
  0
VERTEX
  5
1F3
100
AcDbEntity
  8
0
370
     0
390
0
100
AcDbVertex
100
AcDb2dVertex
 10
1208.747437
 20
381.975647
 30
0.0
  0
VERTEX
  5
1F4
100
AcDbEntity
  8
0
370
     0
390
0
100
AcDbVertex
100
AcDb2dVertex
 10
1207.249512
 20
381.975647
 30
0.0
  0
VERTEX
  5
1F5
100
AcDbEntity
  8
0
370
     0
390
0
100
AcDbVertex
100
AcDb2dVertex
 10
1207.249512
 20
387.331726
 30
0.0
  0
VERTEX
  5
1F6
100
AcDbEntity
  8
0
370
     0
390
0
100
AcDbVertex
100
AcDb2dVertex
 10
1207.249512
 20
392.687805
 30
0.0
  0
VERTEX
  5
1F7
100
AcDbEntity
  8
0
370
     0
390
0
100
AcDbVertex
100
AcDb2dVertex
 10
1208.747437
 20
392.687805
 30
0.0
  0
VERTEX
  5
1F8
100
AcDbEntity
  8
0
370
     0
390
0
100
AcDbVertex
100
AcDb2dVertex
 10
1210.245361
 20
392.687805
 30
0.0
  0
VERTEX
  5
1F9
100
AcDbEntity
  8
0
370
     0
390
0
100
AcDbVertex
100
AcDb2dVertex
 10
1210.245361
 20
398.180054
 30
0.0
  0
VERTEX
  5
1FA
100
AcDbEntity
  8
0
370
     0
390
0
100
AcDbVertex
100
AcDb2dVertex
 10
1210.245361
 20
403.672302
 30
0.0
  0
VERTEX
  5
1FB
100
AcDbEntity
  8
0
370
     0
390
0
100
AcDbVertex
100
AcDb2dVertex
 10
1208.747437
 20
403.672302
 30
0.0
  0
VERTEX
  5
1FC
100
AcDbEntity
  8
0
370
     0
390
0
100
AcDbVertex
100
AcDb2dVertex
 10
1207.249512
 20
403.672302
 30
0.0
  0
VERTEX
  5
1FD
100
AcDbEntity
  8
0
370
     0
390
0
100
AcDbVertex
100
AcDb2dVertex
 10
1207.249512
 20
409.028381
 30
0.0
  0
VERTEX
  5
1FE
100
AcDbEntity
  8
0
370
     0
390
0
100
AcDbVertex
100
AcDb2dVertex
 10
1207.249512
 20
414.38446
 30
0.0
  0
VERTEX
  5
1FF
100
AcDbEntity
  8
0
370
     0
390
0
100
AcDbVertex
100
AcDb2dVertex
 10
1208.747437
 20
414.38446
 30
0.0
  0
VERTEX
  5
200
100
AcDbEntity
  8
0
370
     0
390
0
100
AcDbVertex
100
AcDb2dVertex
 10
1210.245361
 20
414.38446
 30
0.0
  0
VERTEX
  5
201
100
AcDbEntity
  8
0
370
     0
390
0
100
AcDbVertex
100
AcDb2dVertex
 10
1210.245361
 20
419.78595
 30
0.0
  0
VERTEX
  5
202
100
AcDbEntity
  8
0
370
     0
390
0
100
AcDbVertex
100
AcDb2dVertex
 10
1210.245361
 20
425.187439
 30
0.0
  0
VERTEX
  5
203
100
AcDbEntity
  8
0
370
     0
390
0
100
AcDbVertex
100
AcDb2dVertex
 10
1213.01416
 20
425.187439
 30
0.0
  0
VERTEX
  5
204
100
AcDbEntity
  8
0
370
     0
390
0
100
AcDbVertex
100
AcDb2dVertex
 10
1215.782959
 20
425.187439
 30
0.0
  0
VERTEX
  5
205
100
AcDbEntity
  8
0
370
     0
390
0
100
AcDbVertex
100
AcDb2dVertex
 10
1215.782959
 20
426.685303
 30
0.0
  0
VERTEX
  5
206
100
AcDbEntity
  8
0
370
     0
390
0
100
AcDbVertex
100
AcDb2dVertex
 10
1215.782959
 20
428.183228
 30
0.0
  0
VERTEX
  5
207
100
AcDbEntity
  8
0
370
     0
390
0
100
AcDbVertex
100
AcDb2dVertex
 10
1220.004272
 20
428.183228
 30
0.0
  0
VERTEX
  5
208
100
AcDbEntity
  8
0
370
     0
390
0
100
AcDbVertex
100
AcDb2dVertex
 10
1224.225586
 20
428.183228
 30
0.0
  0
SEQEND
  5
209
100
AcDbEntity
  8
0
370
     0
390
0
  0
POLYLINE
  5
20A
100
AcDbEntity
  8
0
370
    35
390
0
 62
     1
100
AcDb2dPolyline
 66
     1
 10
0.0
 20
0.0
 30
0.0
 70
     1
 71
    88
  0
VERTEX
  5
20B
100
AcDbEntity
  8
0
370
     0
390
0
100
AcDbVertex
100
AcDb2dVertex
 10
1287.5
 20
426.685303
 30
0.0
  0
VERTEX
  5
20C
100
AcDbEntity
  8
0
370
     0
390
0
100
AcDbVertex
100
AcDb2dVertex
 10
1287.5
 20
425.187439
 30
0.0
  0
VERTEX
  5
20D
100
AcDbEntity
  8
0
370
     0
390
0
100
AcDbVertex
100
AcDb2dVertex
 10
1291.902954
 20
425.187439
 30
0.0
  0
VERTEX
  5
20E
100
AcDbEntity
  8
0
370
     0
390
0
100
AcDbVertex
100
AcDb2dVertex
 10
1296.305786
 20
425.187439
 30
0.0
  0
VERTEX
  5
20F
100
AcDbEntity
  8
0
370
     0
390
0
100
AcDbVertex
100
AcDb2dVertex
 10
1296.305786
 20
426.685303
 30
0.0
  0
VERTEX
  5
210
100
AcDbEntity
  8
0
370
     0
390
0
100
AcDbVertex
100
AcDb2dVertex
 10
1296.305786
 20
428.183228
 30
0.0
  0
VERTEX
  5
211
100
AcDbEntity
  8
0
370
     0
390
0
100
AcDbVertex
100
AcDb2dVertex
 10
1300.5271
 20
428.183228
 30
0.0
  0
VERTEX
  5
212
100
AcDbEntity
  8
0
370
     0
390
0
100
AcDbVertex
100
AcDb2dVertex
 10
1304.748413
 20
428.183228
 30
0.0
  0
VERTEX
  5
213
100
AcDbEntity
  8
0
370
     0
390
0
100
AcDbVertex
100
AcDb2dVertex
 10
1304.748413
 20
426.685303
 30
0.0
  0
VERTEX
  5
214
100
AcDbEntity
  8
0
370
     0
390
0
100
AcDbVertex
100
AcDb2dVertex
 10
1304.748413
 20
425.187439
 30
0.0
  0
VERTEX
  5
215
100
AcDbEntity
  8
0
370
     0
390
0
100
AcDbVertex
100
AcDb2dVertex
 10
1309.151367
 20
425.187439
 30
0.0
  0
VERTEX
  5
216
100
AcDbEntity
  8
0
370
     0
390
0
100
AcDbVertex
100
AcDb2dVertex
 10
1313.554199
 20
425.187439
 30
0.0
  0
VERTEX
  5
217
100
AcDbEntity
  8
0
370
     0
390
0
100
AcDbVertex
100
AcDb2dVertex
 10
1313.554199
 20
426.685303
 30
0.0
  0
VERTEX
  5
218
100
AcDbEntity
  8
0
370
     0
390
0
100
AcDbVertex
100
AcDb2dVertex
 10
1313.554199
 20
428.183228
 30
0.0
  0
VERTEX
  5
219
100
AcDbEntity
  8
0
370
     0
390
0
100
AcDbVertex
100
AcDb2dVertex
 10
1317.775513
 20
428.183228
 30
0.0
  0
VERTEX
  5
21A
100
AcDbEntity
  8
0
370
     0
390
0
100
AcDbVertex
100
AcDb2dVertex
 10
1321.996826
 20
428.183228
 30
0.0
  0
VERTEX
  5
21B
100
AcDbEntity
  8
0
370
     0
390
0
100
AcDbVertex
100
AcDb2dVertex
 10
1321.996826
 20
426.685303
 30
0.0
  0
VERTEX
  5
21C
100
AcDbEntity
  8
0
370
     0
390
0
100
AcDbVertex
100
AcDb2dVertex
 10
1321.996826
 20
425.187439
 30
0.0
  0
VERTEX
  5
21D
100
AcDbEntity
  8
0
370
     0
390
0
100
AcDbVertex
100
AcDb2dVertex
 10
1324.765625
 20
425.187439
 30
0.0
  0
VERTEX
  5
21E
100
AcDbEntity
  8
0
370
     0
390
0
100
AcDbVertex
100
AcDb2dVertex
 10
1327.534546
 20
425.187439
 30
0.0
  0
VERTEX
  5
21F
100
AcDbEntity
  8
0
370
     0
390
0
100
AcDbVertex
100
AcDb2dVertex
 10
1327.534546
 20
419.78595
 30
0.0
  0
VERTEX
  5
220
100
AcDbEntity
  8
0
370
     0
390
0
100
AcDbVertex
100
AcDb2dVertex
 10
1327.534546
 20
414.38446
 30
0.0
  0
VERTEX
  5
221
100
AcDbEntity
  8
0
370
     0
390
0
100
AcDbVertex
100
AcDb2dVertex
 10
1329.032349
 20
414.38446
 30
0.0
  0
VERTEX
  5
222
100
AcDbEntity
  8
0
370
     0
390
0
100
AcDbVertex
100
AcDb2dVertex
 10
1330.530273
 20
414.38446
 30
0.0
  0
VERTEX
  5
223
100
AcDbEntity
  8
0
370
     0
390
0
100
AcDbVertex
100
AcDb2dVertex
 10
1330.530273
 20
409.028381
 30
0.0
  0
VERTEX
  5
224
100
AcDbEntity
  8
0
370
     0
390
0
100
AcDbVertex
100
AcDb2dVertex
 10
1330.530273
 20
403.672302
 30
0.0
  0
VERTEX
  5
225
100
AcDbEntity
  8
0
370
     0
390
0
100
AcDbVertex
100
AcDb2dVertex
 10
1329.032349
 20
403.672302
 30
0.0
  0
VERTEX
  5
226
100
AcDbEntity
  8
0
370
     0
390
0
100
AcDbVertex
100
AcDb2dVertex
 10
1327.534546
 20
403.672302
 30
0.0
  0
VERTEX
  5
227
100
AcDbEntity
  8
0
370
     0
390
0
100
AcDbVertex
100
AcDb2dVertex
 10
1327.534546
 20
398.180054
 30
0.0
  0
VERTEX
  5
228
100
AcDbEntity
  8
0
370
     0
390
0
100
AcDbVertex
100
AcDb2dVertex
 10
1327.534546
 20
392.687805
 30
0.0
  0
VERTEX
  5
229
100
AcDbEntity
  8
0
370
     0
390
0
100
AcDbVertex
100
AcDb2dVertex
 10
1329.032349
 20
392.687805
 30
0.0
  0
VERTEX
  5
22A
100
AcDbEntity
  8
0
370
     0
390
0
100
AcDbVertex
100
AcDb2dVertex
 10
1330.530273
 20
392.687805
 30
0.0
  0
VERTEX
  5
22B
100
AcDbEntity
  8
0
370
     0
390
0
100
AcDbVertex
100
AcDb2dVertex
 10
1330.530273
 20
387.331726
 30
0.0
  0
VERTEX
  5
22C
100
AcDbEntity
  8
0
370
     0
390
0
100
AcDbVertex
100
AcDb2dVertex
 10
1330.530273
 20
381.975647
 30
0.0
  0
VERTEX
  5
22D
100
AcDbEntity
  8
0
370
     0
390
0
100
AcDbVertex
100
AcDb2dVertex
 10
1329.032349
 20
381.975647
 30
0.0
  0
VERTEX
  5
22E
100
AcDbEntity
  8
0
370
     0
390
0
100
AcDbVertex
100
AcDb2dVertex
 10
1327.534546
 20
381.975647
 30
0.0
  0
VERTEX
  5
22F
100
AcDbEntity
  8
0
370
     0
390
0
100
AcDbVertex
100
AcDb2dVertex
 10
1327.534546
 20
376.574158
 30
0.0
  0
VERTEX
  5
230
100
AcDbEntity
  8
0
370
     0
390
0
100
AcDbVertex
100
AcDb2dVertex
 10
1327.534546
 20
371.172668
 30
0.0
  0
VERTEX
  5
231
100
AcDbEntity
  8
0
370
     0
390
0
100
AcDbVertex
100
AcDb2dVertex
 10
1324.765625
 20
371.172668
 30
0.0
  0
VERTEX
  5
232
100
AcDbEntity
  8
0
370
     0
390
0
100
AcDbVertex
100
AcDb2dVertex
 10
1321.996826
 20
371.172668
 30
0.0
  0
VERTEX
  5
233
100
AcDbEntity
  8
0
370
     0
390
0
100
AcDbVertex
100
AcDb2dVertex
 10
1321.996826
 20
369.674805
 30
0.0
  0
VERTEX
  5
234
100
AcDbEntity
  8
0
370
     0
390
0
100
AcDbVertex
100
AcDb2dVertex
 10
1321.996826
 20
368.17688
 30
0.0
  0
VERTEX
  5
235
100
AcDbEntity
  8
0
370
     0
390
0
100
AcDbVertex
100
AcDb2dVertex
 10
1317.775513
 20
368.17688
 30
0.0
  0
VERTEX
  5
236
100
AcDbEntity
  8
0
370
     0
390
0
100
AcDbVertex
100
AcDb2dVertex
 10
1313.554199
 20
368.17688
 30
0.0
  0
VERTEX
  5
237
100
AcDbEntity
  8
0
370
     0
390
0
100
AcDbVertex
100
AcDb2dVertex
 10
1313.554199
 20
369.674805
 30
0.0
  0
VERTEX
  5
238
100
AcDbEntity
  8
0
370
     0
390
0
100
AcDbVertex
100
AcDb2dVertex
 10
1313.554199
 20
371.172668
 30
0.0
  0
VERTEX
  5
239
100
AcDbEntity
  8
0
370
     0
390
0
100
AcDbVertex
100
AcDb2dVertex
 10
1309.151367
 20
371.172668
 30
0.0
  0
VERTEX
  5
23A
100
AcDbEntity
  8
0
370
     0
390
0
100
AcDbVertex
100
AcDb2dVertex
 10
1304.748413
 20
371.172668
 30
0.0
  0
VERTEX
  5
23B
100
AcDbEntity
  8
0
370
     0
390
0
100
AcDbVertex
100
AcDb2dVertex
 10
1304.748413
 20
369.674805
 30
0.0
  0
VERTEX
  5
23C
100
AcDbEntity
  8
0
370
     0
390
0
100
AcDbVertex
100
AcDb2dVertex
 10
1304.748413
 20
368.17688
 30
0.0
  0
VERTEX
  5
23D
100
AcDbEntity
  8
0
370
     0
390
0
100
AcDbVertex
100
AcDb2dVertex
 10
1300.5271
 20
368.17688
 30
0.0
  0
VERTEX
  5
23E
100
AcDbEntity
  8
0
370
     0
390
0
100
AcDbVertex
100
AcDb2dVertex
 10
1296.305786
 20
368.17688
 30
0.0
  0
VERTEX
  5
23F
100
AcDbEntity
  8
0
370
     0
390
0
100
AcDbVertex
100
AcDb2dVertex
 10
1296.305786
 20
369.674805
 30
0.0
  0
VERTEX
  5
240
100
AcDbEntity
  8
0
370
     0
390
0
100
AcDbVertex
100
AcDb2dVertex
 10
1296.305786
 20
371.172668
 30
0.0
  0
VERTEX
  5
241
100
AcDbEntity
  8
0
370
     0
390
0
100
AcDbVertex
100
AcDb2dVertex
 10
1291.902954
 20
371.172668
 30
0.0
  0
VERTEX
  5
242
100
AcDbEntity
  8
0
370
     0
390
0
100
AcDbVertex
100
AcDb2dVertex
 10
1287.5
 20
371.172668
 30
0.0
  0
VERTEX
  5
243
100
AcDbEntity
  8
0
370
     0
390
0
100
AcDbVertex
100
AcDb2dVertex
 10
1287.5
 20
369.674805
 30
0.0
  0
VERTEX
  5
244
100
AcDbEntity
  8
0
370
     0
390
0
100
AcDbVertex
100
AcDb2dVertex
 10
1287.5
 20
368.17688
 30
0.0
  0
VERTEX
  5
245
100
AcDbEntity
  8
0
370
     0
390
0
100
AcDbVertex
100
AcDb2dVertex
 10
1283.278687
 20
368.17688
 30
0.0
  0
VERTEX
  5
246
100
AcDbEntity
  8
0
370
     0
390
0
100
AcDbVertex
100
AcDb2dVertex
 10
1279.057373
 20
368.17688
 30
0.0
  0
VERTEX
  5
247
100
AcDbEntity
  8
0
370
     0
390
0
100
AcDbVertex
100
AcDb2dVertex
 10
1279.057373
 20
369.674805
 30
0.0
  0
VERTEX
  5
248
100
AcDbEntity
  8
0
370
     0
390
0
100
AcDbVertex
100
AcDb2dVertex
 10
1279.057373
 20
371.172668
 30
0.0
  0
VERTEX
  5
249
100
AcDbEntity
  8
0
370
     0
390
0
100
AcDbVertex
100
AcDb2dVertex
 10
1276.288574
 20
371.172668
 30
0.0
  0
VERTEX
  5
24A
100
AcDbEntity
  8
0
370
     0
390
0
100
AcDbVertex
100
AcDb2dVertex
 10
1273.519775
 20
371.172668
 30
0.0
  0
VERTEX
  5
24B
100
AcDbEntity
  8
0
370
     0
390
0
100
AcDbVertex
100
AcDb2dVertex
 10
1273.519775
 20
376.574158
 30
0.0
  0
VERTEX
  5
24C
100
AcDbEntity
  8
0
370
     0
390
0
100
AcDbVertex
100
AcDb2dVertex
 10
1273.519775
 20
381.975647
 30
0.0
  0
VERTEX
  5
24D
100
AcDbEntity
  8
0
370
     0
390
0
100
AcDbVertex
100
AcDb2dVertex
 10
1272.021851
 20
381.975647
 30
0.0
  0
VERTEX
  5
24E
100
AcDbEntity
  8
0
370
     0
390
0
100
AcDbVertex
100
AcDb2dVertex
 10
1270.523926
 20
381.975647
 30
0.0
  0
VERTEX
  5
24F
100
AcDbEntity
  8
0
370
     0
390
0
100
AcDbVertex
100
AcDb2dVertex
 10
1270.523926
 20
387.331726
 30
0.0
  0
VERTEX
  5
250
100
AcDbEntity
  8
0
370
     0
390
0
100
AcDbVertex
100
AcDb2dVertex
 10
1270.523926
 20
392.687805
 30
0.0
  0
VERTEX
  5
251
100
AcDbEntity
  8
0
370
     0
390
0
100
AcDbVertex
100
AcDb2dVertex
 10
1272.021851
 20
392.687805
 30
0.0
  0
VERTEX
  5
252
100
AcDbEntity
  8
0
370
     0
390
0
100
AcDbVertex
100
AcDb2dVertex
 10
1273.519775
 20
392.687805
 30
0.0
  0
VERTEX
  5
253
100
AcDbEntity
  8
0
370
     0
390
0
100
AcDbVertex
100
AcDb2dVertex
 10
1273.519775
 20
398.180054
 30
0.0
  0
VERTEX
  5
254
100
AcDbEntity
  8
0
370
     0
390
0
100
AcDbVertex
100
AcDb2dVertex
 10
1273.519775
 20
403.672302
 30
0.0
  0
VERTEX
  5
255
100
AcDbEntity
  8
0
370
     0
390
0
100
AcDbVertex
100
AcDb2dVertex
 10
1272.021851
 20
403.672302
 30
0.0
  0
VERTEX
  5
256
100
AcDbEntity
  8
0
370
     0
390
0
100
AcDbVertex
100
AcDb2dVertex
 10
1270.523926
 20
403.672302
 30
0.0
  0
VERTEX
  5
257
100
AcDbEntity
  8
0
370
     0
390
0
100
AcDbVertex
100
AcDb2dVertex
 10
1270.523926
 20
409.028381
 30
0.0
  0
VERTEX
  5
258
100
AcDbEntity
  8
0
370
     0
390
0
100
AcDbVertex
100
AcDb2dVertex
 10
1270.523926
 20
414.38446
 30
0.0
  0
VERTEX
  5
259
100
AcDbEntity
  8
0
370
     0
390
0
100
AcDbVertex
100
AcDb2dVertex
 10
1272.021851
 20
414.38446
 30
0.0
  0
VERTEX
  5
25A
100
AcDbEntity
  8
0
370
     0
390
0
100
AcDbVertex
100
AcDb2dVertex
 10
1273.519775
 20
414.38446
 30
0.0
  0
VERTEX
  5
25B
100
AcDbEntity
  8
0
370
     0
390
0
100
AcDbVertex
100
AcDb2dVertex
 10
1273.519775
 20
419.78595
 30
0.0
  0
VERTEX
  5
25C
100
AcDbEntity
  8
0
370
     0
390
0
100
AcDbVertex
100
AcDb2dVertex
 10
1273.519775
 20
425.187439
 30
0.0
  0
VERTEX
  5
25D
100
AcDbEntity
  8
0
370
     0
390
0
100
AcDbVertex
100
AcDb2dVertex
 10
1276.288574
 20
425.187439
 30
0.0
  0
VERTEX
  5
25E
100
AcDbEntity
  8
0
370
     0
390
0
100
AcDbVertex
100
AcDb2dVertex
 10
1279.057373
 20
425.187439
 30
0.0
  0
VERTEX
  5
25F
100
AcDbEntity
  8
0
370
     0
390
0
100
AcDbVertex
100
AcDb2dVertex
 10
1279.057373
 20
426.685303
 30
0.0
  0
VERTEX
  5
260
100
AcDbEntity
  8
0
370
     0
390
0
100
AcDbVertex
100
AcDb2dVertex
 10
1279.057373
 20
428.183228
 30
0.0
  0
VERTEX
  5
261
100
AcDbEntity
  8
0
370
     0
390
0
100
AcDbVertex
100
AcDb2dVertex
 10
1283.278687
 20
428.183228
 30
0.0
  0
VERTEX
  5
262
100
AcDbEntity
  8
0
370
     0
390
0
100
AcDbVertex
100
AcDb2dVertex
 10
1287.5
 20
428.183228
 30
0.0
  0
SEQEND
  5
263
100
AcDbEntity
  8
0
370
     0
390
0
  0
CIRCLE
  5
264
100
AcDbEntity
  8
0
370
    35
390
0
 62
     1
100
AcDbCircle
 10
1300.5271
 20
524.958679
 30
0.0
 40
8.1
210
0.0
220
0.0
230
1.0
  0
ARC
  5
265
100
AcDbEntity
  8
0
370
    35
390
0
 62
     1
100
AcDbCircle
 10
1291.90979
 20
436.947083
 30
0.0
 40
2.7
210
0.0
220
0.0
230
1.0
100
AcDbArc
 50
359.670085
 51
190.212166
  0
LINE
  5
266
100
AcDbEntity
  8
0
370
    35
390
0
 62
     1
 48
0.0625
100
AcDbLine
 10
1289.252563
 20
436.947083
 30
0.0
 11
1289.252563
 21
434.447083
 31
0.0
210
0.0
220
0.0
230
1.0
  0
LINE
  5
267
100
AcDbEntity
  8
0
370
    35
390
0
 62
     1
 48
0.062113
100
AcDbLine
 10
1294.609741
 20
436.93158
 30
0.0
 11
1294.595459
 21
434.447083
 31
0.0
210
0.0
220
0.0
230
1.0
  0
CIRCLE
  5
268
100
AcDbEntity
  8
0
370
    35
390
0
 62
     1
100
AcDbCircle
 10
1261.129517
 20
549.115051
 30
0.0
 40
1.7
210
0.0
220
0.0
230
1.0
  0
CIRCLE
  5
269
100
AcDbEntity
  8
0
370
    35
390
0
 62
     1
100
AcDbCircle
 10
1213.141113
 20
549.097412
 30
0.0
 40
1.7
210
0.0
220
0.0
230
1.0
  0
CIRCLE
  5
26A
100
AcDbEntity
  8
0
370
    35
390
0
 62
     1
100
AcDbCircle
 10
1261.145142
 20
501.079224
 30
0.0
 40
1.7
210
0.0
220
0.0
230
1.0
  0
CIRCLE
  5
26B
100
AcDbEntity
  8
0
370
    35
390
0
 62
     1
100
AcDbCircle
 10
1213.148926
 20
501.096863
 30
0.0
 40
1.7
210
0.0
220
0.0
230
1.0
  0
ARC
  5
26C
100
AcDbEntity
  8
0
370
    35
390
0
 62
     5
100
AcDbCircle
 10
1298.823608
 20
546.472717
 30
0.0
 40
0.294053
210
0.0
220
0.0
230
1.0
100
AcDbArc
 50
135.917144
 51
179.146955
  0
ARC
  5
26D
100
AcDbEntity
  8
0
370
    35
390
0
 62
     5
100
AcDbCircle
 10
1407.730713
 20
544.851135
 30
0.0
 40
109.213234
210
0.0
220
0.0
230
1.0
100
AcDbArc
 50
179.146942
 51
179.816396
  0
ARC
  5
26E
100
AcDbEntity
  8
0
370
    35
390
0
 62
     5
100
AcDbCircle
 10
1338.699463
 20
545.072388
 30
0.0
 40
40.181683
210
0.0
220
0.0
230
1.0
100
AcDbArc
 50
179.81641
 51
181.726831
  0
ARC
  5
26F
100
AcDbEntity
  8
0
370
    35
390
0
 62
     5
100
AcDbCircle
 10
1329.297852
 20
544.789001
 30
0.0
 40
30.775799
210
0.0
220
0.0
230
1.0
100
AcDbArc
 50
181.726885
 51
184.060119
  0
LINE
  5
270
100
AcDbEntity
  8
0
370
    35
390
0
 62
     5
 48
0.029823
100
AcDbLine
 10
1298.599365
 20
542.609924
 30
0.0
 11
1298.683838
 21
541.419983
 31
0.0
210
0.0
220
0.0
230
1.0
  0
LINE
  5
271
100
AcDbEntity
  8
0
370
    35
390
0
 62
     5
 48
0.015762
100
AcDbLine
 10
1298.683838
 20
541.419983
 30
0.0
 11
1299.314331
 21
541.419983
 31
0.0
210
0.0
220
0.0
230
1.0
  0
LINE
  5
272
100
AcDbEntity
  8
0
370
    35
390
0
 62
     5
 48
0.015762
100
AcDbLine
 10
1299.314331
 20
541.419983
 30
0.0
 11
1299.944824
 21
541.419983
 31
0.0
210
0.0
220
0.0
230
1.0
  0
LINE
  5
273
100
AcDbEntity
  8
0
370
    35
390
0
 62
     5
 48
0.022749
100
AcDbLine
 10
1299.944824
 20
541.419983
 30
0.0
 11
1299.944824
 21
542.329956
 31
0.0
210
0.0
220
0.0
230
1.0
  0
LINE
  5
274
100
AcDbEntity
  8
0
370
    35
390
0
 62
     5
 48
0.022751
100
AcDbLine
 10
1299.944824
 20
542.329956
 30
0.0
 11
1299.944824
 21
543.23999
 31
0.0
210
0.0
220
0.0
230
1.0
  0
LINE
  5
275
100
AcDbEntity
  8
0
370
    35
390
0
 62
     5
 48
0.01221
100
AcDbLine
 10
1299.944824
 20
543.23999
 30
0.0
 11
1300.433228
 21
543.23999
 31
0.0
210
0.0
220
0.0
230
1.0
  0
ARC
  5
276
100
AcDbEntity
  8
0
370
    35
390
0
 62
     5
100
AcDbCircle
 10
1300.433228
 20
546.456177
 30
0.0
 40
3.216201
210
0.0
220
0.0
230
1.0
100
AcDbArc
 50
270.000052
 51
289.546312
  0
ARC
  5
277
100
AcDbEntity
  8
0
370
    35
390
0
 62
     5
100
AcDbCircle
 10
1300.914917
 20
545.099548
 30
0.0
 40
1.776622
210
0.0
220
0.0
230
1.0
100
AcDbArc
 50
289.546312
 51
320.020949
  0
ARC
  5
278
100
AcDbEntity
  8
0
370
    35
390
0
 62
     5
100
AcDbCircle
 10
1301.160889
 20
544.893311
 30
0.0
 40
1.455641
210
0.0
220
0.0
230
1.0
100
AcDbArc
 50
320.020891
 51
354.436165
  0
ARC
  5
279
100
AcDbEntity
  8
0
370
    35
390
0
 62
     5
100
AcDbCircle
 10
1300.642578
 20
544.943848
 30
0.0
 40
1.976405
210
0.0
220
0.0
230
1.0
100
AcDbArc
 50
354.43611
 51
21.807421
  0
ARC
  5
27A
100
AcDbEntity
  8
0
370
    35
390
0
 62
     5
100
AcDbCircle
 10
1301.058594
 20
545.110291
 30
0.0
 40
1.528244
210
0.0
220
0.0
230
1.0
100
AcDbArc
 50
21.807396
 51
42.810328
  0
ARC
  5
27B
100
AcDbEntity
  8
0
370
    35
390
0
 62
     5
100
AcDbCircle
 10
1301.255493
 20
545.292664
 30
0.0
 40
1.259914
210
0.0
220
0.0
230
1.0
100
AcDbArc
 50
42.810403
 51
67.084144
  0
ARC
  5
27C
100
AcDbEntity
  8
0
370
    35
390
0
 62
     5
100
AcDbCircle
 10
1300.770752
 20
544.146179
 30
0.0
 40
2.504622
210
0.0
220
0.0
230
1.0
100
AcDbArc
 50
67.084199
 51
82.940551
  0
ARC
  5
27D
100
AcDbEntity
  8
0
370
    35
390
0
 62
     5
100
AcDbCircle
 10
1299.421265
 20
533.248718
 30
0.0
 40
13.485348
210
0.0
220
0.0
230
1.0
100
AcDbArc
 50
82.940606
 51
87.498459
  0
ARC
  5
27E
100
AcDbEntity
  8
0
370
    35
390
0
 62
     5
100
AcDbCircle
 10
1299.276123
 20
529.926575
 30
0.0
 40
16.810638
210
0.0
220
0.0
230
1.0
100
AcDbArc
 50
87.4985
 51
89.221238
  0
ARC
  5
27F
100
AcDbEntity
  8
0
370
    35
390
0
 62
     5
100
AcDbCircle
 10
1299.371216
 20
536.919495
 30
0.0
 40
9.817096
210
0.0
220
0.0
230
1.0
100
AcDbArc
 50
89.22117
 51
91.798453
  0
ARC
  5
280
100
AcDbEntity
  8
0
370
    35
390
0
 62
     5
100
AcDbCircle
 10
1299.514648
 20
532.352112
 30
0.0
 40
14.386702
210
0.0
220
0.0
230
1.0
100
AcDbArc
 50
91.798391
 51
93.262627
  0
ARC
  5
281
100
AcDbEntity
  8
0
370
    35
390
0
 62
     5
100
AcDbCircle
 10
1298.703003
 20
546.589539
 30
0.0
 40
0.126154
210
0.0
220
0.0
230
1.0
100
AcDbArc
 50
93.262579
 51
135.917185
  0
ARC
  5
282
100
AcDbEntity
  8
0
370
    35
390
0
 62
     5
100
AcDbCircle
 10
1299.968628
 20
544.433777
 30
0.0
 40
1.437158
210
0.0
220
0.0
230
1.0
100
AcDbArc
 50
33.568406
 51
44.999967
  0
ARC
  5
283
100
AcDbEntity
  8
0
370
    35
390
0
 62
     5
100
AcDbCircle
 10
1300.836182
 20
545.00946
 30
0.0
 40
0.395986
210
0.0
220
0.0
230
1.0
100
AcDbArc
 50
3.742218
 51
33.568399
  0
ARC
  5
284
100
AcDbEntity
  8
0
370
    35
390
0
 62
     5
100
AcDbCircle
 10
1300.810303
 20
545.007751
 30
0.0
 40
0.42191
210
0.0
220
0.0
230
1.0
100
AcDbArc
 50
335.115145
 51
3.742247
  0
ARC
  5
285
100
AcDbEntity
  8
0
370
    35
390
0
 62
     5
100
AcDbCircle
 10
1299.6427
 20
545.549377
 30
0.0
 40
1.709075
210
0.0
220
0.0
230
1.0
100
AcDbArc
 50
324.991602
 51
335.115145
  0
ARC
  5
286
100
AcDbEntity
  8
0
370
    35
390
0
 62
     5
100
AcDbCircle
 10
1300.459717
 20
544.977112
 30
0.0
 40
0.711578
210
0.0
220
0.0
230
1.0
100
AcDbArc
 50
310.713147
 51
324.991548
  0
ARC
  5
287
100
AcDbEntity
  8
0
370
    35
390
0
 62
     5
100
AcDbCircle
 10
1300.548584
 20
544.873779
 30
0.0
 40
0.575199
210
0.0
220
0.0
230
1.0
100
AcDbArc
 50
293.965219
 51
310.713174
  0
ARC
  5
288
100
AcDbEntity
  8
0
370
    35
390
0
 62
     5
100
AcDbCircle
 10
1300.500977
 20
544.981079
 30
0.0
 40
0.692614
210
0.0
220
0.0
230
1.0
100
AcDbArc
 50
278.924213
 51
293.965198
  0
ARC
  5
289
100
AcDbEntity
  8
0
370
    35
390
0
 62
     5
100
AcDbCircle
 10
1300.392456
 20
545.67157
 30
0.0
 40
1.39161
210
0.0
220
0.0
230
1.0
100
AcDbArc
 50
270.000025
 51
278.924248
  0
LINE
  5
28A
100
AcDbEntity
  8
0
370
    35
390
0
 62
     5
 48
0.011191
100
AcDbLine
 10
1300.392456
 20
544.279968
 30
0.0
 11
1299.944824
 21
544.279968
 31
0.0
210
0.0
220
0.0
230
1.0
  0
LINE
  5
28B
100
AcDbEntity
  8
0
370
    35
390
0
 62
     5
 48
0.017876
100
AcDbLine
 10
1299.944824
 20
544.279968
 30
0.0
 11
1299.944824
 21
544.994995
 31
0.0
210
0.0
220
0.0
230
1.0
  0
ARC
  5
28C
100
AcDbEntity
  8
0
370
    35
390
0
 62
     5
100
AcDbCircle
 10
1314.497925
 20
544.994995
 30
0.0
 40
14.55302
210
0.0
220
0.0
230
1.0
100
AcDbArc
 50
178.16614
 51
180.000036
  0
ARC
  5
28D
100
AcDbEntity
  8
0
370
    35
390
0
 62
     5
100
AcDbCircle
 10
1300.303955
 20
545.449463
 30
0.0
 40
0.351778
210
0.0
220
0.0
230
1.0
100
AcDbArc
 50
151.389517
 51
178.166222
  0
ARC
  5
28E
100
AcDbEntity
  8
0
370
    35
390
0
 62
     5
100
AcDbCircle
 10
1300.120239
 20
545.549683
 30
0.0
 40
0.142502
210
0.0
220
0.0
230
1.0
100
AcDbArc
 50
99.4901
 51
151.389517
  0
ARC
  5
28F
100
AcDbEntity
  8
0
370
    35
390
0
 62
     5
100
AcDbCircle
 10
1300.334839
 20
544.265442
 30
0.0
 40
1.44451
210
0.0
220
0.0
230
1.0
100
AcDbArc
 50
89.999968
 51
99.490052
  0
ARC
  5
290
100
AcDbEntity
  8
0
370
    35
390
0
 62
     5
100
AcDbCircle
 10
1300.334839
 20
544.944214
 30
0.0
 40
0.765764
210
0.0
220
0.0
230
1.0
100
AcDbArc
 50
77.22983
 51
89.999968
  0
ARC
  5
291
100
AcDbEntity
  8
0
370
    35
390
0
 62
     5
100
AcDbCircle
 10
1300.235352
 20
544.505188
 30
0.0
 40
1.215942
210
0.0
220
0.0
230
1.0
100
AcDbArc
 50
68.198578
 51
77.229905
  0
ARC
  5
292
100
AcDbEntity
  8
0
370
    35
390
0
 62
     5
100
AcDbCircle
 10
1300.244751
 20
544.528625
 30
0.0
 40
1.190713
210
0.0
220
0.0
230
1.0
100
AcDbArc
 50
59.093171
 51
68.198633
  0
ARC
  5
293
100
AcDbEntity
  8
0
370
    35
390
0
 62
     5
100
AcDbCircle
 10
1300.515137
 20
544.980164
 30
0.0
 40
0.664379
210
0.0
220
0.0
230
1.0
100
AcDbArc
 50
44.999964
 51
59.093205
  0
ARC
  5
294
100
AcDbEntity
  8
0
370
    35
390
0
 62
     5
100
AcDbCircle
 10
1296.353149
 20
543.239441
 30
0.0
 40
3.119553
210
0.0
220
0.0
230
1.0
100
AcDbArc
 50
104.162168
 51
106.442918
  0
ARC
  5
295
100
AcDbEntity
  8
0
370
    35
390
0
 62
     5
100
AcDbCircle
 10
1297.495972
 20
539.367249
 30
0.0
 40
7.156905
210
0.0
220
0.0
230
1.0
100
AcDbArc
 50
106.442993
 51
107.669114
  0
ARC
  5
296
100
AcDbEntity
  8
0
370
    35
390
0
 62
     5
100
AcDbCircle
 10
1297.550171
 20
539.19696
 30
0.0
 40
7.335645
210
0.0
220
0.0
230
1.0
100
AcDbArc
 50
107.66906
 51
108.889444
  0
ARC
  5
297
100
AcDbEntity
  8
0
370
    35
390
0
 62
     5
100
AcDbCircle
 10
1296.483643
 20
542.313965
 30
0.0
 40
4.041185
210
0.0
220
0.0
230
1.0
100
AcDbArc
 50
108.889546
 51
110.796535
  0
LINE
  5
298
100
AcDbEntity
  8
0
370
    35
390
0
 62
     5
 48
0.007515
100
AcDbLine
 10
1295.048828
 20
546.091858
 30
0.0
 11
1294.767822
 21
545.985107
 31
0.0
210
0.0
220
0.0
230
1.0
  0
LINE
  5
299
100
AcDbEntity
  8
0
370
    35
390
0
 62
     5
 48
0.04196
100
AcDbLine
 10
1294.767822
 20
545.985107
 30
0.0
 11
1295.274658
 21
544.385071
 31
0.0
210
0.0
220
0.0
230
1.0
  0
ARC
  5
29A
100
AcDbEntity
  8
0
370
    35
390
0
 62
     5
100
AcDbCircle
 10
1270.834106
 20
536.642944
 30
0.0
 40
25.637461
210
0.0
220
0.0
230
1.0
100
AcDbArc
 50
16.077454
 51
17.576749
  0
ARC
  5
29B
100
AcDbEntity
  8
0
370
    35
390
0
 62
     5
100
AcDbCircle
 10
1276.547119
 20
538.28949
 30
0.0
 40
19.691936
210
0.0
220
0.0
230
1.0
100
AcDbArc
 50
14.250228
 51
16.077466
  0
ARC
  5
29C
100
AcDbEntity
  8
0
370
    35
390
0
 62
     5
100
AcDbCircle
 10
1276.968262
 20
538.396484
 30
0.0
 40
19.257336
210
0.0
220
0.0
230
1.0
100
AcDbArc
 50
12.682464
 51
14.250281
  0
ARC
  5
29D
100
AcDbEntity
  8
0
370
    35
390
0
 62
     5
100
AcDbCircle
 10
1294.660522
 20
542.377869
 30
0.0
 40
1.12268
210
0.0
220
0.0
230
1.0
100
AcDbArc
 50
0.242298
 51
12.682503
  0
ARC
  5
29E
100
AcDbEntity
  8
0
370
    35
390
0
 62
     5
100
AcDbCircle
 10
1294.935059
 20
542.379028
 30
0.0
 40
0.848178
210
0.0
220
0.0
230
1.0
100
AcDbArc
 50
326.873019
 51
0.242389
  0
ARC
  5
29F
100
AcDbEntity
  8
0
370
    35
390
0
 62
     5
100
AcDbCircle
 10
1294.96936
 20
542.356628
 30
0.0
 40
0.807196
210
0.0
220
0.0
230
1.0
100
AcDbArc
 50
292.243198
 51
326.873101
  0
ARC
  5
2A0
100
AcDbEntity
  8
0
370
    35
390
0
 62
     5
100
AcDbCircle
 10
1294.965942
 20
542.365051
 30
0.0
 40
0.816287
210
0.0
220
0.0
230
1.0
100
AcDbArc
 50
257.849419
 51
292.243198
  0
ARC
  5
2A1
100
AcDbEntity
  8
0
370
    35
390
0
 62
     5
100
AcDbCircle
 10
1294.976807
 20
542.415527
 30
0.0
 40
0.867942
210
0.0
220
0.0
230
1.0
100
AcDbArc
 50
225.000027
 51
257.849364
  0
ARC
  5
2A2
100
AcDbEntity
  8
0
370
    35
390
0
 62
     5
100
AcDbCircle
 10
1294.791016
 20
542.229797
 30
0.0
 40
0.60522
210
0.0
220
0.0
230
1.0
100
AcDbArc
 50
203.985242
 51
224.999986
  0
ARC
  5
2A3
100
AcDbEntity
  8
0
370
    35
390
0
 62
     5
100
AcDbCircle
 10
1308.011353
 20
548.111816
 30
0.0
 40
15.075039
210
0.0
220
0.0
230
1.0
100
AcDbArc
 50
201.942852
 51
203.985283
  0
ARC
  5
2A4
100
AcDbEntity
  8
0
370
    35
390
0
 62
     5
100
AcDbCircle
 10
1307.560913
 20
547.930359
 30
0.0
 40
14.589447
210
0.0
220
0.0
230
1.0
100
AcDbArc
 50
199.404986
 51
201.942866
  0
ARC
  5
2A5
100
AcDbEntity
  8
0
370
    35
390
0
 62
     5
100
AcDbCircle
 10
1313.268555
 20
549.940918
 30
0.0
 40
20.640877
210
0.0
220
0.0
230
1.0
100
AcDbArc
 50
197.448328
 51
199.405041
  0
ARC
  5
2A6
100
AcDbEntity
  8
0
370
    35
390
0
 62
     5
100
AcDbCircle
 10
1204.034912
 20
515.60791
 30
0.0
 40
93.861343
210
0.0
220
0.0
230
1.0
100
AcDbArc
 50
17.448345
 51
17.865458
  0
ARC
  5
2A7
100
AcDbEntity
  8
0
370
    35
390
0
 62
     5
100
AcDbCircle
 10
1247.703247
 20
529.683289
 30
0.0
 40
47.980633
210
0.0
220
0.0
230
1.0
100
AcDbArc
 50
17.865454
 51
18.554605
  0
LINE
  5
2A8
100
AcDbEntity
  8
0
370
    35
390
0
 62
     5
 48
0.012794
100
AcDbLine
 10
1293.189819
 20
544.951172
 30
0.0
 11
1293.026611
 21
545.436218
 31
0.0
210
0.0
220
0.0
230
1.0
  0
ARC
  5
2A9
100
AcDbEntity
  8
0
370
    35
390
0
 62
     5
100
AcDbCircle
 10
1293.007446
 20
545.429749
 30
0.0
 40
0.02022
210
0.0
220
0.0
230
1.0
100
AcDbArc
 50
18.642185
 51
90.000078
  0
ARC
  5
2AA
100
AcDbEntity
  8
0
370
    35
390
0
 62
     5
100
AcDbCircle
 10
1293.007446
 20
544.777039
 30
0.0
 40
0.672916
210
0.0
220
0.0
230
1.0
100
AcDbArc
 50
89.999962
 51
110.706964
  0
ARC
  5
2AB
100
AcDbEntity
  8
0
370
    35
390
0
 62
     5
100
AcDbCircle
 10
1296.46936
 20
535.618774
 30
0.0
 40
10.46366
210
0.0
220
0.0
230
1.0
100
AcDbArc
 50
110.706944
 51
113.502376
  0
ARC
  5
2AC
100
AcDbEntity
  8
0
370
    35
390
0
 62
     5
100
AcDbCircle
 10
1300.096558
 20
527.277832
 30
0.0
 40
19.559137
210
0.0
220
0.0
230
1.0
100
AcDbArc
 50
113.502403
 51
115.057378
  0
ARC
  5
2AD
100
AcDbEntity
  8
0
370
    35
390
0
 62
     5
100
AcDbCircle
 10
1291.855225
 20
544.905273
 30
0.0
 40
0.10031
210
0.0
220
0.0
230
1.0
100
AcDbArc
 50
115.057378
 51
180.00005
  0
ARC
  5
2AE
100
AcDbEntity
  8
0
370
    35
390
0
 62
     5
100
AcDbCircle
 10
1293.18103
 20
544.905273
 30
0.0
 40
1.426184
210
0.0
220
0.0
230
1.0
100
AcDbArc
 50
179.999964
 51
198.411562
  0
ARC
  5
2AF
100
AcDbEntity
  8
0
370
    35
390
0
 62
     5
100
AcDbCircle
 10
1394.785034
 20
578.727051
 30
0.0
 40
108.511536
210
0.0
220
0.0
230
1.0
100
AcDbArc
 50
198.41148
 51
199.24296
  0
ARC
  5
2B0
100
AcDbEntity
  8
0
370
    35
390
0
 62
     5
100
AcDbCircle
 10
1393.487061
 20
578.273926
 30
0.0
 40
107.136772
210
0.0
220
0.0
230
1.0
100
AcDbArc
 50
199.242974
 51
200.084303
  0
ARC
  5
2B1
100
AcDbEntity
  8
0
370
    35
390
0
 62
     5
100
AcDbCircle
 10
1294.244873
 20
541.987305
 30
0.0
 40
1.468702
210
0.0
220
0.0
230
1.0
100
AcDbArc
 50
200.084385
 51
218.188553
  0
ARC
  5
2B2
100
AcDbEntity
  8
0
370
    35
390
0
 62
     5
100
AcDbCircle
 10
1294.219482
 20
541.967407
 30
0.0
 40
1.436501
210
0.0
220
0.0
230
1.0
100
AcDbArc
 50
218.188607
 51
234.019196
  0
ARC
  5
2B3
100
AcDbEntity
  8
0
370
    35
390
0
 62
     5
100
AcDbCircle
 10
1294.713623
 20
542.647949
 30
0.0
 40
2.277488
210
0.0
220
0.0
230
1.0
100
AcDbArc
 50
234.019196
 51
245.227837
  0
ARC
  5
2B4
100
AcDbEntity
  8
0
370
    35
390
0
 62
     5
100
AcDbCircle
 10
1294.748657
 20
542.723816
 30
0.0
 40
2.361045
210
0.0
220
0.0
230
1.0
100
AcDbArc
 50
245.227919
 51
256.255724
  0
ARC
  5
2B5
100
AcDbEntity
  8
0
370
    35
390
0
 62
     5
100
AcDbCircle
 10
1294.605835
 20
542.140076
 30
0.0
 40
1.76008
210
0.0
220
0.0
230
1.0
100
AcDbArc
 50
256.255724
 51
270.000052
  0
ARC
  5
2B6
100
AcDbEntity
  8
0
370
    35
390
0
 62
     5
100
AcDbCircle
 10
1294.605835
 20
542.387573
 30
0.0
 40
2.007598
210
0.0
220
0.0
230
1.0
100
AcDbArc
 50
269.999943
 51
285.793806
  0
ARC
  5
2B7
100
AcDbEntity
  8
0
370
    35
390
0
 62
     5
100
AcDbCircle
 10
1293.846313
 20
545.072632
 30
0.0
 40
4.797965
210
0.0
220
0.0
230
1.0
100
AcDbArc
 50
285.793806
 51
294.03098
  0
ARC
  5
2B8
100
AcDbEntity
  8
0
370
    35
390
0
 62
     5
100
AcDbCircle
 10
1293.856323
 20
545.050293
 30
0.0
 40
4.773511
210
0.0
220
0.0
230
1.0
100
AcDbArc
 50
294.031035
 51
302.27396
  0
ARC
  5
2B9
100
AcDbEntity
  8
0
370
    35
390
0
 62
     5
100
AcDbCircle
 10
1295.394165
 20
542.615234
 30
0.0
 40
1.89357
210
0.0
220
0.0
230
1.0
100
AcDbArc
 50
302.274007
 51
318.716434
  0
ARC
  5
2BA
100
AcDbEntity
  8
0
370
    35
390
0
 62
     5
100
AcDbCircle
 10
1294.679443
 20
543.242737
 30
0.0
 40
2.844606
210
0.0
220
0.0
230
1.0
100
AcDbArc
 50
318.716458
 51
325.295191
  0
ARC
  5
2BB
100
AcDbEntity
  8
0
370
    35
390
0
 62
     5
100
AcDbCircle
 10
1296.158203
 20
542.218628
 30
0.0
 40
1.045848
210
0.0
220
0.0
230
1.0
100
AcDbArc
 50
325.295109
 51
339.177168
  0
ARC
  5
2BC
100
AcDbEntity
  8
0
370
    35
390
0
 62
     5
100
AcDbCircle
 10
1296.172607
 20
542.213135
 30
0.0
 40
1.030463
210
0.0
220
0.0
230
1.0
100
AcDbArc
 50
339.17706
 51
353.18676
  0
ARC
  5
2BD
100
AcDbEntity
  8
0
370
    35
390
0
 62
     5
100
AcDbCircle
 10
1294.508423
 20
542.411987
 30
0.0
 40
2.706424
210
0.0
220
0.0
230
1.0
100
AcDbArc
 50
353.18676
 51
359.999955
  0
ARC
  5
2BE
100
AcDbEntity
  8
0
370
    35
390
0
 62
     5
100
AcDbCircle
 10
1294.297974
 20
542.411987
 30
0.0
 40
2.916954
210
0.0
220
0.0
230
1.0
100
AcDbArc
 50
359.999983
 51
14.98939
  0
ARC
  5
2BF
100
AcDbEntity
  8
0
370
    35
390
0
 62
     5
100
AcDbCircle
 10
1258.086548
 20
532.71637
 30
0.0
 40
40.403831
210
0.0
220
0.0
230
1.0
100
AcDbArc
 50
14.989429
 51
17.184247
  0
ARC
  5
2C0
100
AcDbEntity
  8
0
370
    35
390
0
 62
     5
100
AcDbCircle
 10
1195.682617
 20
513.417786
 30
0.0
 40
105.723778
210
0.0
220
0.0
230
1.0
100
AcDbArc
 50
17.184291
 51
18.075809
  0
ARC
  5
2C1
100
AcDbEntity
  8
0
370
    35
390
0
 62
     5
100
AcDbCircle
 10
1296.016846
 20
546.165222
 30
0.0
 40
0.180627
210
0.0
220
0.0
230
1.0
100
AcDbArc
 50
18.075809
 51
95.789237
  0
ARC
  5
2C2
100
AcDbEntity
  8
0
370
    35
390
0
 62
     5
100
AcDbCircle
 10
1296.108154
 20
545.264221
 30
0.0
 40
1.08623
210
0.0
220
0.0
230
1.0
100
AcDbArc
 50
95.789319
 51
99.770971
  0
ARC
  5
2C3
100
AcDbEntity
  8
0
370
    35
390
0
 62
     5
100
AcDbCircle
 10
1296.679321
 20
541.947754
 30
0.0
 40
4.451478
210
0.0
220
0.0
230
1.0
100
AcDbArc
 50
99.771094
 51
101.167027
  0
ARC
  5
2C4
100
AcDbEntity
  8
0
370
    35
390
0
 62
     5
100
AcDbCircle
 10
1296.774536
 20
541.465637
 30
0.0
 40
4.942949
210
0.0
220
0.0
230
1.0
100
AcDbArc
 50
101.166952
 51
102.551206
  0
ARC
  5
2C5
100
AcDbEntity
  8
0
370
    35
390
0
 62
     5
100
AcDbCircle
 10
1296.577637
 20
542.349731
 30
0.0
 40
4.037158
210
0.0
220
0.0
230
1.0
100
AcDbArc
 50
102.551131
 51
104.162263
  0
ARC
  5
2C6
100
AcDbEntity
  8
0
370
    35
390
0
 62
     5
100
AcDbCircle
 10
1351.477417
 20
529.42981
 30
0.0
 40
49.528942
210
0.0
220
0.0
230
1.0
100
AcDbArc
 50
161.949126
 51
162.735227
  0
ARC
  5
2C7
100
AcDbEntity
  8
0
370
    35
390
0
 62
     5
100
AcDbCircle
 10
1343.431152
 20
531.930481
 30
0.0
 40
41.103081
210
0.0
220
0.0
230
1.0
100
AcDbArc
 50
162.735213
 51
163.639339
  0
ARC
  5
2C8
100
AcDbEntity
  8
0
370
    35
390
0
 62
     5
100
AcDbCircle
 10
1341.11438
 20
532.610596
 30
0.0
 40
38.688473
210
0.0
220
0.0
230
1.0
100
AcDbArc
 50
163.639311
 51
164.453361
  0
ARC
  5
2C9
100
AcDbEntity
  8
0
370
    35
390
0
 62
     5
100
AcDbCircle
 10
1306.798828
 20
542.157227
 30
0.0
 40
3.069778
210
0.0
220
0.0
230
1.0
100
AcDbArc
 50
164.453347
 51
169.654919
  0
ARC
  5
2CA
100
AcDbEntity
  8
0
370
    35
390
0
 62
     5
100
AcDbCircle
 10
1305.325195
 20
542.42627
 30
0.0
 40
1.571721
210
0.0
220
0.0
230
1.0
100
AcDbArc
 50
169.654919
 51
202.257273
  0
ARC
  5
2CB
100
AcDbEntity
  8
0
370
    35
390
0
 62
     5
100
AcDbCircle
 10
1305.701294
 20
542.5802
 30
0.0
 40
1.978095
210
0.0
220
0.0
230
1.0
100
AcDbArc
 50
202.257259
 51
229.700877
  0
ARC
  5
2CC
100
AcDbEntity
  8
0
370
    35
390
0
 62
     5
100
AcDbCircle
 10
1306.152466
 20
543.112244
 30
0.0
 40
2.675743
210
0.0
220
0.0
230
1.0
100
AcDbArc
 50
229.700823
 51
252.732186
  0
ARC
  5
2CD
100
AcDbEntity
  8
0
370
    35
390
0
 62
     5
100
AcDbCircle
 10
1306.52478
 20
544.309875
 30
0.0
 40
3.929887
210
0.0
220
0.0
230
1.0
100
AcDbArc
 50
252.732159
 51
269.999997
  0
ARC
  5
2CE
100
AcDbEntity
  8
0
370
    35
390
0
 62
     5
100
AcDbCircle
 10
1306.52478
 20
544.865112
 30
0.0
 40
4.485131
210
0.0
220
0.0
230
1.0
100
AcDbArc
 50
269.999997
 51
274.933088
  0
ARC
  5
2CF
100
AcDbEntity
  8
0
370
    35
390
0
 62
     5
100
AcDbCircle
 10
1306.817383
 20
541.475403
 30
0.0
 40
1.082832
210
0.0
220
0.0
230
1.0
100
AcDbArc
 50
274.933088
 51
289.113763
  0
ARC
  5
2D0
100
AcDbEntity
  8
0
370
    35
390
0
 62
     5
100
AcDbCircle
 10
1306.862061
 20
541.346252
 30
0.0
 40
0.946149
210
0.0
220
0.0
230
1.0
100
AcDbArc
 50
289.113735
 51
304.57043
  0
ARC
  5
2D1
100
AcDbEntity
  8
0
370
    35
390
0
 62
     5
100
AcDbCircle
 10
1305.755615
 20
542.952026
 30
0.0
 40
2.896201
210
0.0
220
0.0
230
1.0
100
AcDbArc
 50
304.570402
 51
311.283522
  0
ARC
  5
2D2
100
AcDbEntity
  8
0
370
    35
390
0
 62
     5
100
AcDbCircle
 10
1306.536255
 20
542.062866
 30
0.0
 40
1.712967
210
0.0
220
0.0
230
1.0
100
AcDbArc
 50
311.283467
 51
324.395136
  0
ARC
  5
2D3
100
AcDbEntity
  8
0
370
    35
390
0
 62
     5
100
AcDbCircle
 10
1305.959961
 20
542.475525
 30
0.0
 40
2.421785
210
0.0
220
0.0
230
1.0
100
AcDbArc
 50
324.395108
 51
334.509497
  0
ARC
  5
2D4
100
AcDbEntity
  8
0
370
    35
390
0
 62
     5
100
AcDbCircle
 10
1302.742798
 20
544.009399
 30
0.0
 40
5.985936
210
0.0
220
0.0
230
1.0
100
AcDbArc
 50
334.509526
 51
340.333409
  0
ARC
  5
2D5
100
AcDbEntity
  8
0
370
    35
390
0
 62
     5
100
AcDbCircle
 10
1262.043701
 20
558.554932
 30
0.0
 40
49.206169
210
0.0
220
0.0
230
1.0
100
AcDbArc
 50
340.333437
 51
341.568034
  0
ARC
  5
2D6
100
AcDbEntity
  8
0
370
    35
390
0
 62
     5
100
AcDbCircle
 10
1282.651611
 20
551.686829
 30
0.0
 40
27.483816
210
0.0
220
0.0
230
1.0
100
AcDbArc
 50
341.568089
 51
343.115509
  0
ARC
  5
2D7
100
AcDbEntity
  8
0
370
    35
390
0
 62
     5
100
AcDbCircle
 10
1294.722046
 20
548.023071
 30
0.0
 40
14.869638
210
0.0
220
0.0
230
1.0
100
AcDbArc
 50
343.115591
 51
345.5664
  0
ARC
  5
2D8
100
AcDbEntity
  8
0
370
    35
390
0
 62
     5
100
AcDbCircle
 10
1282.727173
 20
551.110352
 30
0.0
 40
27.255522
210
0.0
220
0.0
230
1.0
100
AcDbArc
 50
345.5664
 51
346.686414
  0
ARC
  5
2D9
100
AcDbEntity
  8
0
370
    35
390
0
 62
     5
100
AcDbCircle
 10
1309.157837
 20
544.855774
 30
0.0
 40
0.094872
210
0.0
220
0.0
230
1.0
100
AcDbArc
 50
346.686414
 51
47.451838
  0
ARC
  5
2DA
100
AcDbEntity
  8
0
370
    35
390
0
 62
     5
100
AcDbCircle
 10
1308.75354
 20
544.415283
 30
0.0
 40
0.692805
210
0.0
220
0.0
230
1.0
100
AcDbArc
 50
47.451793
 51
69.842516
  0
ARC
  5
2DB
100
AcDbEntity
  8
0
370
    35
390
0
 62
     5
100
AcDbCircle
 10
1307.501709
 20
541.00531
 30
0.0
 40
4.325304
210
0.0
220
0.0
230
1.0
100
AcDbArc
 50
69.842557
 51
75.62591
  0
ARC
  5
2DC
100
AcDbEntity
  8
0
370
    35
390
0
 62
     5
100
AcDbCircle
 10
1307.189819
 20
539.788147
 30
0.0
 40
5.581759
210
0.0
220
0.0
230
1.0
100
AcDbArc
 50
75.625945
 51
80.050691
  0
ARC
  5
2DD
100
AcDbEntity
  8
0
370
    35
390
0
 62
     5
100
AcDbCircle
 10
1308.126709
 20
545.12915
 30
0.0
 40
0.159212
210
0.0
220
0.0
230
1.0
100
AcDbArc
 50
80.050671
 51
137.604584
  0
ARC
  5
2DE
100
AcDbEntity
  8
0
370
    35
390
0
 62
     5
100
AcDbCircle
 10
1308.220459
 20
545.043579
 30
0.0
 40
0.286155
210
0.0
220
0.0
230
1.0
100
AcDbArc
 50
137.604638
 51
159.347781
  0
ARC
  5
2DF
100
AcDbEntity
  8
0
370
    35
390
0
 62
     5
100
AcDbCircle
 10
1360.590698
 20
525.304504
 30
0.0
 40
56.252899
210
0.0
220
0.0
230
1.0
100
AcDbArc
 50
159.347863
 51
159.864211
  0
ARC
  5
2E0
100
AcDbEntity
  8
0
370
    35
390
0
 62
     5
100
AcDbCircle
 10
1336.439453
 20
534.159729
 30
0.0
 40
30.529352
210
0.0
220
0.0
230
1.0
100
AcDbArc
 50
159.864293
 51
160.983392
  0
ARC
  5
2E1
100
AcDbEntity
  8
0
370
    35
390
0
 62
     5
100
AcDbCircle
 10
1356.540527
 20
527.231873
 30
0.0
 40
51.790825
210
0.0
220
0.0
230
1.0
100
AcDbArc
 50
160.983379
 51
161.736694
  0
ARC
  5
2E2
100
AcDbEntity
  8
0
370
    35
390
0
 62
     5
100
AcDbCircle
 10
1276.047729
 20
553.795166
 30
0.0
 40
32.971825
210
0.0
220
0.0
230
1.0
100
AcDbArc
 50
340.239235
 51
341.736711
  0
ARC
  5
2E3
100
AcDbEntity
  8
0
370
    35
390
0
 62
     5
100
AcDbCircle
 10
1300.847656
 20
544.885742
 30
0.0
 40
6.620061
210
0.0
220
0.0
230
1.0
100
AcDbArc
 50
335.316089
 51
340.239344
  0
ARC
  5
2E4
100
AcDbEntity
  8
0
370
    35
390
0
 62
     5
100
AcDbCircle
 10
1304.067383
 20
543.405945
 30
0.0
 40
3.076581
210
0.0
220
0.0
230
1.0
100
AcDbArc
 50
328.046773
 51
335.316089
  0
ARC
  5
2E5
100
AcDbEntity
  8
0
370
    35
390
0
 62
     5
100
AcDbCircle
 10
1306.180054
 20
542.088196
 30
0.0
 40
0.586543
210
0.0
220
0.0
230
1.0
100
AcDbArc
 50
303.233789
 51
328.046746
  0
ARC
  5
2E6
100
AcDbEntity
  8
0
370
    35
390
0
 62
     5
100
AcDbCircle
 10
1306.095703
 20
542.21698
 30
0.0
 40
0.74054
210
0.0
220
0.0
230
1.0
100
AcDbArc
 50
276.981762
 51
303.233871
  0
ARC
  5
2E7
100
AcDbEntity
  8
0
370
    35
390
0
 62
     5
100
AcDbCircle
 10
1306.083984
 20
542.312317
 30
0.0
 40
0.836567
210
0.0
220
0.0
230
1.0
100
AcDbArc
 50
253.022613
 51
276.981762
  0
ARC
  5
2E8
100
AcDbEntity
  8
0
370
    35
390
0
 62
     5
100
AcDbCircle
 10
1306.109375
 20
542.395325
 30
0.0
 40
0.92336
210
0.0
220
0.0
230
1.0
100
AcDbArc
 50
230.368815
 51
253.022579
  0
ARC
  5
2E9
100
AcDbEntity
  8
0
370
    35
390
0
 62
     5
100
AcDbCircle
 10
1306.174072
 20
542.473389
 30
0.0
 40
1.024768
210
0.0
220
0.0
230
1.0
100
AcDbArc
 50
209.417497
 51
230.368843
  0
ARC
  5
2EA
100
AcDbEntity
  8
0
370
    35
390
0
 62
     5
100
AcDbCircle
 10
1305.85437
 20
542.293152
 30
0.0
 40
0.657742
210
0.0
220
0.0
230
1.0
100
AcDbArc
 50
185.78037
 51
209.417579
  0
ARC
  5
2EB
100
AcDbEntity
  8
0
370
    35
390
0
 62
     5
100
AcDbCircle
 10
1306.266846
 20
542.3349
 30
0.0
 40
1.072353
210
0.0
220
0.0
230
1.0
100
AcDbArc
 50
169.389211
 51
185.780343
  0
ARC
  5
2EC
100
AcDbEntity
  8
0
370
    35
390
0
 62
     5
100
AcDbCircle
 10
1309.480469
 20
541.732849
 30
0.0
 40
4.341897
210
0.0
220
0.0
230
1.0
100
AcDbArc
 50
162.714982
 51
169.389197
  0
ARC
  5
2ED
100
AcDbEntity
  8
0
370
    35
390
0
 62
     5
100
AcDbCircle
 10
1390.313965
 20
516.579346
 30
0.0
 40
88.998535
210
0.0
220
0.0
230
1.0
100
AcDbArc
 50
161.972281
 51
162.71505
  0
LINE
  5
2EE
100
AcDbEntity
  8
0
370
    35
390
0
 62
     5
 48
0.047796
100
AcDbLine
 10
1305.68457
 20
544.122375
 30
0.0
 11
1306.276245
 21
545.940369
 31
0.0
210
0.0
220
0.0
230
1.0
  0
LINE
  5
2EF
100
AcDbEntity
  8
0
370
    35
390
0
 62
     5
 48
0.013419
100
AcDbLine
 10
1306.276245
 20
545.940369
 30
0.0
 11
1305.762085
 21
546.094482
 31
0.0
210
0.0
220
0.0
230
1.0
  0
ARC
  5
2F0
100
AcDbEntity
  8
0
370
    35
390
0
 62
     5
100
AcDbCircle
 10
1312.603394
 20
568.928711
 30
0.0
 40
23.83703
210
0.0
220
0.0
230
1.0
100
AcDbArc
 50
252.795434
 51
253.321393
  0
ARC
  5
2F1
100
AcDbEntity
  8
0
370
    35
390
0
 62
     5
100
AcDbCircle
 10
1311.9552
 20
566.835327
 30
0.0
 40
21.645622
210
0.0
220
0.0
230
1.0
100
AcDbArc
 50
252.230004
 51
252.795407
  0
ARC
  5
2F2
100
AcDbEntity
  8
0
370
    35
390
0
 62
     5
100
AcDbCircle
 10
1311.349365
 20
564.945068
 30
0.0
 40
19.660719
210
0.0
220
0.0
230
1.0
100
AcDbArc
 50
251.695534
 51
252.229983
  0
ARC
  5
2F3
100
AcDbEntity
  8
0
370
    35
390
0
 62
     5
100
AcDbCircle
 10
1305.860962
 20
548.35376
 30
0.0
 40
2.185163
210
0.0
220
0.0
230
1.0
100
AcDbArc
 50
249.006346
 51
251.695446
  0
ARC
  5
2F4
100
AcDbEntity
  8
0
370
    35
390
0
 62
     5
100
AcDbCircle
 10
1305.047974
 20
546.235413
 30
0.0
 40
0.083851
210
0.0
220
0.0
230
1.0
100
AcDbArc
 50
69.006398
 51
149.875756
  0
ARC
  5
2F5
100
AcDbEntity
  8
0
370
    35
390
0
 62
     5
100
AcDbCircle
 10
1307.751953
 20
544.666443
 30
0.0
 40
3.20996
210
0.0
220
0.0
230
1.0
100
AcDbArc
 50
149.875825
 51
155.763161
  0
ARC
  5
2F6
100
AcDbEntity
  8
0
370
    35
390
0
 62
     5
100
AcDbCircle
 10
1310.35144
 20
543.496155
 30
0.0
 40
6.06078
210
0.0
220
0.0
230
1.0
100
AcDbArc
 50
155.763202
 51
160.55014
  0
ARC
  5
2F7
100
AcDbEntity
  8
0
370
    35
390
0
 62
     5
100
AcDbCircle
 10
1334.71228
 20
534.893555
 30
0.0
 40
31.896002
210
0.0
220
0.0
230
1.0
100
AcDbArc
 50
160.55014
 51
161.949058
  0
ARC
  5
2F8
100
AcDbEntity
  8
0
370
    35
390
0
 62
     5
100
AcDbCircle
 10
1488.274414
 20
410.319885
 30
0.0
 40
221.327209
210
0.0
220
0.0
230
1.0
100
AcDbArc
 50
143.619494
 51
143.871596
  0
ARC
  5
2F9
100
AcDbEntity
  8
0
370
    35
390
0
 62
     5
100
AcDbCircle
 10
1407.740723
 20
469.107056
 30
0.0
 40
121.619614
210
0.0
220
0.0
230
1.0
100
AcDbArc
 50
143.871542
 51
144.26619
  0
LINE
  5
2FA
100
AcDbEntity
  8
0
370
    35
390
0
 62
     5
 48
0.018293
100
AcDbLine
 10
1309.017456
 20
540.135437
 30
0.0
 11
1308.590576
 21
539.541138
 31
0.0
210
0.0
220
0.0
230
1.0
  0
ARC
  5
2FB
100
AcDbEntity
  8
0
370
    35
390
0
 62
     5
100
AcDbCircle
 10
1308.86084
 20
539.347473
 30
0.0
 40
0.332436
210
0.0
220
0.0
230
1.0
100
AcDbArc
 50
144.367796
 51
159.103861
  0
ARC
  5
2FC
100
AcDbEntity
  8
0
370
    35
390
0
 62
     5
100
AcDbCircle
 10
1308.603882
 20
539.445557
 30
0.0
 40
0.057431
210
0.0
220
0.0
230
1.0
100
AcDbArc
 50
159.103793
 51
222.676765
  0
ARC
  5
2FD
100
AcDbEntity
  8
0
370
    35
390
0
 62
     5
100
AcDbCircle
 10
1310.359985
 20
541.064697
 30
0.0
 40
2.446029
210
0.0
220
0.0
230
1.0
100
AcDbArc
 50
222.676793
 51
226.95607
  0
ARC
  5
2FE
100
AcDbEntity
  8
0
370
    35
390
0
 62
     5
100
AcDbCircle
 10
1310.439209
 20
541.149475
 30
0.0
 40
2.562052
210
0.0
220
0.0
230
1.0
100
AcDbArc
 50
226.956125
 51
232.134091
  0
ARC
  5
2FF
100
AcDbEntity
  8
0
370
    35
390
0
 62
     5
100
AcDbCircle
 10
1311.694336
 20
542.763855
 30
0.0
 40
4.606981
210
0.0
220
0.0
230
1.0
100
AcDbArc
 50
232.134173
 51
235.471294
  0
LINE
  5
300
100
AcDbEntity
  8
0
370
    35
390
0
 62
     5
 48
0.017373
100
AcDbLine
 10
1309.083008
 20
538.968445
 30
0.0
 11
1309.655518
 21
538.574585
 31
0.0
210
0.0
220
0.0
230
1.0
  0
LINE
  5
301
100
AcDbEntity
  8
0
370
    35
390
0
 62
     5
 48
0.026541
100
AcDbLine
 10
1309.655518
 20
538.574585
 30
0.0
 11
1310.283813
 21
539.430359
 31
0.0
210
0.0
220
0.0
230
1.0
  0
LINE
  5
302
100
AcDbEntity
  8
0
370
    35
390
0
 62
     5
 48
0.026543
100
AcDbLine
 10
1310.283813
 20
539.430359
 30
0.0
 11
1310.912231
 21
540.286133
 31
0.0
210
0.0
220
0.0
230
1.0
  0
LINE
  5
303
100
AcDbEntity
  8
0
370
    35
390
0
 62
     5
 48
0.011082
100
AcDbLine
 10
1310.912231
 20
540.286133
 30
0.0
 11
1311.201294
 21
539.950073
 31
0.0
210
0.0
220
0.0
230
1.0
  0
ARC
  5
304
100
AcDbEntity
  8
0
370
    35
390
0
 62
     5
100
AcDbCircle
 10
1309.837891
 20
538.777283
 30
0.0
 40
1.79843
210
0.0
220
0.0
230
1.0
100
AcDbArc
 50
32.596074
 51
40.700964
  0
ARC
  5
305
100
AcDbEntity
  8
0
370
    35
390
0
 62
     5
100
AcDbCircle
 10
1310.950928
 20
539.489014
 30
0.0
 40
0.477255
210
0.0
220
0.0
230
1.0
100
AcDbArc
 50
10.856143
 51
32.596101
  0
ARC
  5
306
100
AcDbEntity
  8
0
370
    35
390
0
 62
     5
100
AcDbCircle
 10
1310.827026
 20
539.465271
 30
0.0
 40
0.603385
210
0.0
220
0.0
230
1.0
100
AcDbArc
 50
352.230341
 51
10.85618
  0
ARC
  5
307
100
AcDbEntity
  8
0
370
    35
390
0
 62
     5
100
AcDbCircle
 10
1307.779785
 20
539.881042
 30
0.0
 40
3.678892
210
0.0
220
0.0
230
1.0
100
AcDbArc
 50
347.33673
 51
352.230423
  0
ARC
  5
308
100
AcDbEntity
  8
0
370
    35
390
0
 62
     5
100
AcDbCircle
 10
1306.468018
 20
540.175781
 30
0.0
 40
5.023419
210
0.0
220
0.0
230
1.0
100
AcDbArc
 50
344.529686
 51
347.336812
  0
ARC
  5
309
100
AcDbEntity
  8
0
370
    35
390
0
 62
     5
100
AcDbCircle
 10
1302.797729
 20
541.191589
 30
0.0
 40
8.831618
210
0.0
220
0.0
230
1.0
100
AcDbArc
 50
342.689825
 51
344.529659
  0
ARC
  5
30A
100
AcDbEntity
  8
0
370
    35
390
0
 62
     5
100
AcDbCircle
 10
1303.057373
 20
541.110657
 30
0.0
 40
8.559699
210
0.0
220
0.0
230
1.0
100
AcDbArc
 50
340.83876
 51
342.689852
  0
ARC
  5
30B
100
AcDbEntity
  8
0
370
    35
390
0
 62
     5
100
AcDbCircle
 10
1307.715332
 20
539.492126
 30
0.0
 40
3.628467
210
0.0
220
0.0
230
1.0
100
AcDbArc
 50
337.323564
 51
340.838734
  0
LINE
  5
30C
100
AcDbEntity
  8
0
370
    35
390
0
 62
     5
 48
0.011975
100
AcDbLine
 10
1311.063354
 20
538.093262
 30
0.0
 11
1310.878662
 21
537.651306
 31
0.0
210
0.0
220
0.0
230
1.0
  0
LINE
  5
30D
100
AcDbEntity
  8
0
370
    35
390
0
 62
     5
 48
0.019113
100
AcDbLine
 10
1310.878662
 20
537.651306
 30
0.0
 11
1311.486328
 21
537.187378
 31
0.0
210
0.0
220
0.0
230
1.0
  0
LINE
  5
30E
100
AcDbEntity
  8
0
370
    35
390
0
 62
     5
 48
0.019111
100
AcDbLine
 10
1311.486328
 20
537.187378
 30
0.0
 11
1312.093872
 21
536.72345
 31
0.0
210
0.0
220
0.0
230
1.0
  0
LINE
  5
30F
100
AcDbEntity
  8
0
370
    35
390
0
 62
     5
 48
0.024931
100
AcDbLine
 10
1312.093872
 20
536.72345
 30
0.0
 11
1312.394775
 21
537.674194
 31
0.0
210
0.0
220
0.0
230
1.0
  0
ARC
  5
310
100
AcDbEntity
  8
0
370
    35
390
0
 62
     5
100
AcDbCircle
 10
1302.437012
 20
540.824707
 30
0.0
 40
10.444229
210
0.0
220
0.0
230
1.0
100
AcDbArc
 50
342.44331
 51
344.716943
  0
ARC
  5
311
100
AcDbEntity
  8
0
370
    35
390
0
 62
     5
100
AcDbCircle
 10
1301.778442
 20
541.0047
 30
0.0
 40
11.126994
210
0.0
220
0.0
230
1.0
100
AcDbArc
 50
344.716943
 51
346.885173
  0
ARC
  5
312
100
AcDbEntity
  8
0
370
    35
390
0
 62
     5
100
AcDbCircle
 10
1303.020874
 20
540.71521
 30
0.0
 40
9.851241
210
0.0
220
0.0
230
1.0
100
AcDbArc
 50
346.885145
 51
349.049276
  0
ARC
  5
313
100
AcDbEntity
  8
0
370
    35
390
0
 62
     5
100
AcDbCircle
 10
1310.902954
 20
539.190125
 30
0.0
 40
1.822988
210
0.0
220
0.0
230
1.0
100
AcDbArc
 50
349.04925
 51
356.598111
  0
ARC
  5
314
100
AcDbEntity
  8
0
370
    35
390
0
 62
     5
100
AcDbCircle
 10
1316.261597
 20
538.871582
 30
0.0
 40
3.54514
210
0.0
220
0.0
230
1.0
100
AcDbArc
 50
172.089444
 51
176.598038
  0
ARC
  5
315
100
AcDbEntity
  8
0
370
    35
390
0
 62
     5
100
AcDbCircle
 10
1312.926025
 20
539.335083
 30
0.0
 40
0.177486
210
0.0
220
0.0
230
1.0
100
AcDbArc
 50
132.316651
 51
172.089457
  0
ARC
  5
316
100
AcDbEntity
  8
0
370
    35
390
0
 62
     5
100
AcDbCircle
 10
1312.912598
 20
539.349731
 30
0.0
 40
0.15766
210
0.0
220
0.0
230
1.0
100
AcDbArc
 50
88.969648
 51
132.316638
  0
ARC
  5
317
100
AcDbEntity
  8
0
370
    35
390
0
 62
     5
100
AcDbCircle
 10
1312.867798
 20
536.856995
 30
0.0
 40
2.650783
210
0.0
220
0.0
230
1.0
100
AcDbArc
 50
83.42626
 51
88.96958
  0
ARC
  5
318
100
AcDbEntity
  8
0
370
    35
390
0
 62
     5
100
AcDbCircle
 10
1313.300537
 20
540.611877
 30
0.0
 40
1.128917
210
0.0
220
0.0
230
1.0
100
AcDbArc
 50
263.426159
 51
275.408606
  0
ARC
  5
319
100
AcDbEntity
  8
0
370
    35
390
0
 62
     5
100
AcDbCircle
 10
1313.35144
 20
540.074158
 30
0.0
 40
0.588797
210
0.0
220
0.0
230
1.0
100
AcDbArc
 50
275.408578
 51
294.911364
  0
ARC
  5
31A
100
AcDbEntity
  8
0
370
    35
390
0
 62
     5
100
AcDbCircle
 10
1313.230835
 20
540.333801
 30
0.0
 40
0.875114
210
0.0
220
0.0
230
1.0
100
AcDbArc
 50
294.911282
 51
310.121106
  0
ARC
  5
31B
100
AcDbEntity
  8
0
370
    35
390
0
 62
     5
100
AcDbCircle
 10
1311.184082
 20
542.762573
 30
0.0
 40
4.051319
210
0.0
220
0.0
230
1.0
100
AcDbArc
 50
310.121188
 51
314.999992
  0
ARC
  5
31C
100
AcDbEntity
  8
0
370
    35
390
0
 62
     5
100
AcDbCircle
 10
1312.631592
 20
541.315063
 30
0.0
 40
2.004207
210
0.0
220
0.0
230
1.0
100
AcDbArc
 50
314.999992
 51
329.189792
  0
ARC
  5
31D
100
AcDbEntity
  8
0
370
    35
390
0
 62
     5
100
AcDbCircle
 10
1313.398926
 20
540.857422
 30
0.0
 40
1.11074
210
0.0
220
0.0
230
1.0
100
AcDbArc
 50
329.18971
 51
351.262586
  0
ARC
  5
31E
100
AcDbEntity
  8
0
370
    35
390
0
 62
     5
100
AcDbCircle
 10
1313.471191
 20
540.846375
 30
0.0
 40
1.037721
210
0.0
220
0.0
230
1.0
100
AcDbArc
 50
351.262559
 51
14.245169
  0
ARC
  5
31F
100
AcDbEntity
  8
0
370
    35
390
0
 62
     5
100
AcDbCircle
 10
1312.911865
 20
540.704346
 30
0.0
 40
1.614799
210
0.0
220
0.0
230
1.0
100
AcDbArc
 50
14.245213
 51
30.747384
  0
ARC
  5
320
100
AcDbEntity
  8
0
370
    35
390
0
 62
     5
100
AcDbCircle
 10
1313.112915
 20
540.823975
 30
0.0
 40
1.380816
210
0.0
220
0.0
230
1.0
100
AcDbArc
 50
30.747346
 51
49.897657
  0
ARC
  5
321
100
AcDbEntity
  8
0
370
    35
390
0
 62
     5
100
AcDbCircle
 10
1277.94812
 20
499.067932
 30
0.0
 40
55.971397
210
0.0
220
0.0
230
1.0
100
AcDbArc
 50
49.897657
 51
51.227594
  0
ARC
  5
322
100
AcDbEntity
  8
0
370
    35
390
0
 62
     5
100
AcDbCircle
 10
1254.128296
 20
469.412598
 30
0.0
 40
94.008438
210
0.0
220
0.0
230
1.0
100
AcDbArc
 50
51.227689
 51
52.049764
  0
ARC
  5
323
100
AcDbEntity
  8
0
370
    35
390
0
 62
     5
100
AcDbCircle
 10
1311.689453
 20
543.219604
 30
0.0
 40
0.409538
210
0.0
220
0.0
230
1.0
100
AcDbArc
 50
52.049791
 51
90.467543
  0
ARC
  5
324
100
AcDbEntity
  8
0
370
    35
390
0
 62
     5
100
AcDbCircle
 10
1311.68689
 20
543.542664
 30
0.0
 40
0.08644
210
0.0
220
0.0
230
1.0
100
AcDbArc
 50
90.467522
 51
141.440295
  0
ARC
  5
325
100
AcDbEntity
  8
0
370
    35
390
0
 62
     5
100
AcDbCircle
 10
1421.321045
 20
456.149109
 30
0.0
 40
140.290939
210
0.0
220
0.0
230
1.0
100
AcDbArc
 50
141.440322
 51
141.734376
  0
ARC
  5
326
100
AcDbEntity
  8
0
370
    35
390
0
 62
     5
100
AcDbCircle
 10
1343.248901
 20
517.730774
 30
0.0
 40
40.854641
210
0.0
220
0.0
230
1.0
100
AcDbArc
 50
141.734348
 51
142.895836
  0
ARC
  5
327
100
AcDbEntity
  8
0
370
    35
390
0
 62
     5
100
AcDbCircle
 10
1371.962524
 20
496.011536
 30
0.0
 40
76.857384
210
0.0
220
0.0
230
1.0
100
AcDbArc
 50
142.895795
 51
143.619549
  0
ARC
  5
328
100
AcDbEntity
  8
0
370
    35
390
0
 62
     5
100
AcDbCircle
 10
1311.859253
 20
540.702332
 30
0.0
 40
1.230191
210
0.0
220
0.0
230
1.0
100
AcDbArc
 50
17.043859
 51
46.226959
  0
ARC
  5
329
100
AcDbEntity
  8
0
370
    35
390
0
 62
     5
100
AcDbCircle
 10
1312.667114
 20
540.950012
 30
0.0
 40
0.385183
210
0.0
220
0.0
230
1.0
100
AcDbArc
 50
308.166224
 51
17.043856
  0
ARC
  5
32A
100
AcDbEntity
  8
0
370
    35
390
0
 62
     5
100
AcDbCircle
 10
1312.555298
 20
541.092346
 30
0.0
 40
0.566182
210
0.0
220
0.0
230
1.0
100
AcDbArc
 50
254.577246
 51
308.166251
  0
ARC
  5
32B
100
AcDbEntity
  8
0
370
    35
390
0
 62
     5
100
AcDbCircle
 10
1312.850586
 20
542.16272
 30
0.0
 40
1.676534
210
0.0
220
0.0
230
1.0
100
AcDbArc
 50
230.673196
 51
254.577266
  0
LINE
  5
32C
100
AcDbEntity
  8
0
370
    35
390
0
 62
     5
 48
0.009041
100
AcDbLine
 10
1311.788086
 20
540.865845
 30
0.0
 11
1311.508301
 21
541.094971
 31
0.0
210
0.0
220
0.0
230
1.0
  0
LINE
  5
32D
100
AcDbEntity
  8
0
370
    35
390
0
 62
     5
 48
0.012848
100
AcDbLine
 10
1311.508301
 20
541.094971
 30
0.0
 11
1311.804077
 21
541.515259
 31
0.0
210
0.0
220
0.0
230
1.0
  0
ARC
  5
32E
100
AcDbEntity
  8
0
370
    35
390
0
 62
     5
100
AcDbCircle
 10
1314.762451
 20
539.433289
 30
0.0
 40
3.617447
210
0.0
220
0.0
230
1.0
100
AcDbArc
 50
138.579156
 51
144.863381
  0
ARC
  5
32F
100
AcDbEntity
  8
0
370
    35
390
0
 62
     5
100
AcDbCircle
 10
1312.239746
 20
541.658936
 30
0.0
 40
0.2533
210
0.0
220
0.0
230
1.0
100
AcDbArc
 50
94.758131
 51
138.579156
  0
ARC
  5
330
100
AcDbEntity
  8
0
370
    35
390
0
 62
     5
100
AcDbCircle
 10
1312.240601
 20
541.649048
 30
0.0
 40
0.263227
210
0.0
220
0.0
230
1.0
100
AcDbArc
 50
52.122765
 51
94.758117
  0
ARC
  5
331
100
AcDbEntity
  8
0
370
    35
390
0
 62
     5
100
AcDbCircle
 10
1309.97168
 20
538.732239
 30
0.0
 40
3.958535
210
0.0
220
0.0
230
1.0
100
AcDbArc
 50
46.22697
 51
52.122779
  0
ARC
  5
332
100
AcDbEntity
  8
0
370
    35
390
0
 62
     5
100
AcDbCircle
 10
1289.348267
 20
539.410339
 30
0.0
 40
3.621409
210
0.0
220
0.0
230
1.0
100
AcDbArc
 50
114.354517
 51
128.006378
  0
ARC
  5
333
100
AcDbEntity
  8
0
370
    35
390
0
 62
     5
100
AcDbCircle
 10
1289.05957
 20
539.779785
 30
0.0
 40
3.152531
210
0.0
220
0.0
230
1.0
100
AcDbArc
 50
128.006296
 51
143.154058
  0
ARC
  5
334
100
AcDbEntity
  8
0
370
    35
390
0
 62
     5
100
AcDbCircle
 10
1288.734131
 20
540.023682
 30
0.0
 40
2.745809
210
0.0
220
0.0
230
1.0
100
AcDbArc
 50
143.153989
 51
159.445698
  0
ARC
  5
335
100
AcDbEntity
  8
0
370
    35
390
0
 62
     5
100
AcDbCircle
 10
1288.048584
 20
540.280701
 30
0.0
 40
2.013744
210
0.0
220
0.0
230
1.0
100
AcDbArc
 50
159.445725
 51
179.99995
  0
ARC
  5
336
100
AcDbEntity
  8
0
370
    35
390
0
 62
     5
100
AcDbCircle
 10
1287.813599
 20
540.280701
 30
0.0
 40
1.778715
210
0.0
220
0.0
230
1.0
100
AcDbArc
 50
180.000009
 51
198.062717
  0
ARC
  5
337
100
AcDbEntity
  8
0
370
    35
390
0
 62
     5
100
AcDbCircle
 10
1290.200073
 20
541.05896
 30
0.0
 40
4.288911
210
0.0
220
0.0
230
1.0
100
AcDbArc
 50
198.06269
 51
207.421442
  0
ARC
  5
338
100
AcDbEntity
  8
0
370
    35
390
0
 62
     5
100
AcDbCircle
 10
1290.448486
 20
541.187866
 30
0.0
 40
4.568821
210
0.0
220
0.0
230
1.0
100
AcDbArc
 50
207.421429
 51
216.584319
  0
ARC
  5
339
100
AcDbEntity
  8
0
370
    35
390
0
 62
     5
100
AcDbCircle
 10
1289.115112
 20
540.19812
 30
0.0
 40
2.908169
210
0.0
220
0.0
230
1.0
100
AcDbArc
 50
216.584387
 51
229.437697
  0
ARC
  5
33A
100
AcDbEntity
  8
0
370
    35
390
0
 62
     5
100
AcDbCircle
 10
1289.140259
 20
540.2276
 30
0.0
 40
2.946975
210
0.0
220
0.0
230
1.0
100
AcDbArc
 50
229.437697
 51
246.216159
  0
ARC
  5
33B
100
AcDbEntity
  8
0
370
    35
390
0
 62
     5
100
AcDbCircle
 10
1288.843384
 20
539.553772
 30
0.0
 40
2.210606
210
0.0
220
0.0
230
1.0
100
AcDbArc
 50
246.216159
 51
267.029767
  0
ARC
  5
33C
100
AcDbEntity
  8
0
370
    35
390
0
 62
     5
100
AcDbCircle
 10
1288.845947
 20
539.603333
 30
0.0
 40
2.260242
210
0.0
220
0.0
230
1.0
100
AcDbArc
 50
267.029685
 51
287.578234
  0
ARC
  5
33D
100
AcDbEntity
  8
0
370
    35
390
0
 62
     5
100
AcDbCircle
 10
1288.568726
 20
540.47821
 30
0.0
 40
3.177954
210
0.0
220
0.0
230
1.0
100
AcDbArc
 50
287.578152
 51
303.495413
  0
ARC
  5
33E
100
AcDbEntity
  8
0
370
    35
390
0
 62
     5
100
AcDbCircle
 10
1288.529541
 20
540.537476
 30
0.0
 40
3.249027
210
0.0
220
0.0
230
1.0
100
AcDbArc
 50
303.495385
 51
325.80893
  0
ARC
  5
33F
100
AcDbEntity
  8
0
370
    35
390
0
 62
     5
100
AcDbCircle
 10
1289.290161
 20
540.020752
 30
0.0
 40
2.329485
210
0.0
220
0.0
230
1.0
100
AcDbArc
 50
325.808985
 51
354.439034
  0
ARC
  5
340
100
AcDbEntity
  8
0
370
    35
390
0
 62
     5
100
AcDbCircle
 10
1289.229126
 20
540.026672
 30
0.0
 40
2.390754
210
0.0
220
0.0
230
1.0
100
AcDbArc
 50
354.439034
 51
22.62787
  0
ARC
  5
341
100
AcDbEntity
  8
0
370
    35
390
0
 62
     5
100
AcDbCircle
 10
1288.213867
 20
539.603455
 30
0.0
 40
3.490705
210
0.0
220
0.0
230
1.0
100
AcDbArc
 50
22.627875
 51
43.857372
  0
ARC
  5
342
100
AcDbEntity
  8
0
370
    35
390
0
 62
     5
100
AcDbCircle
 10
1287.607788
 20
539.021057
 30
0.0
 40
4.331284
210
0.0
220
0.0
230
1.0
100
AcDbArc
 50
43.857362
 51
55.880267
  0
ARC
  5
343
100
AcDbEntity
  8
0
370
    35
390
0
 62
     5
100
AcDbCircle
 10
1288.860596
 20
540.870117
 30
0.0
 40
2.097778
210
0.0
220
0.0
230
1.0
100
AcDbArc
 50
55.88025
 51
76.558156
  0
ARC
  5
344
100
AcDbEntity
  8
0
370
    35
390
0
 62
     5
100
AcDbCircle
 10
1288.914307
 20
541.094604
 30
0.0
 40
1.866942
210
0.0
220
0.0
230
1.0
100
AcDbArc
 50
76.558204
 51
98.727126
  0
ARC
  5
345
100
AcDbEntity
  8
0
370
    35
390
0
 62
     5
100
AcDbCircle
 10
1289.082764
 20
539.996826
 30
0.0
 40
2.977608
210
0.0
220
0.0
230
1.0
100
AcDbArc
 50
98.727188
 51
114.354524
  0
ARC
  5
346
100
AcDbEntity
  8
0
370
    35
390
0
 62
     5
100
AcDbCircle
 10
1286.194824
 20
537.793152
 30
0.0
 40
4.675806
210
0.0
220
0.0
230
1.0
100
AcDbArc
 50
35.009521
 51
43.94611
  0
ARC
  5
347
100
AcDbEntity
  8
0
370
    35
390
0
 62
     5
100
AcDbCircle
 10
1288.674438
 20
539.530029
 30
0.0
 40
1.648451
210
0.0
220
0.0
230
1.0
100
AcDbArc
 50
15.558599
 51
35.009514
  0
ARC
  5
348
100
AcDbEntity
  8
0
370
    35
390
0
 62
     5
100
AcDbCircle
 10
1289.289429
 20
539.701233
 30
0.0
 40
1.009994
210
0.0
220
0.0
230
1.0
100
AcDbArc
 50
349.508457
 51
15.558556
  0
ARC
  5
349
100
AcDbEntity
  8
0
370
    35
390
0
 62
     5
100
AcDbCircle
 10
1289.295654
 20
539.700134
 30
0.0
 40
1.003629
210
0.0
220
0.0
230
1.0
100
AcDbArc
 50
323.334626
 51
349.508457
  0
ARC
  5
34A
100
AcDbEntity
  8
0
370
    35
390
0
 62
     5
100
AcDbCircle
 10
1288.737549
 20
540.115601
 30
0.0
 40
1.69947
210
0.0
220
0.0
230
1.0
100
AcDbArc
 50
308.1268
 51
323.334571
  0
ARC
  5
34B
100
AcDbEntity
  8
0
370
    35
390
0
 62
     5
100
AcDbCircle
 10
1289.239746
 20
539.475708
 30
0.0
 40
0.885988
210
0.0
220
0.0
230
1.0
100
AcDbArc
 50
283.36775
 51
308.1268
  0
ARC
  5
34C
100
AcDbEntity
  8
0
370
    35
390
0
 62
     5
100
AcDbCircle
 10
1289.247314
 20
539.44397
 30
0.0
 40
0.853369
210
0.0
220
0.0
230
1.0
100
AcDbArc
 50
258.041593
 51
283.367723
  0
ARC
  5
34D
100
AcDbEntity
  8
0
370
    35
390
0
 62
     5
100
AcDbCircle
 10
1289.385254
 20
540.095276
 30
0.0
 40
1.519125
210
0.0
220
0.0
230
1.0
100
AcDbArc
 50
241.594641
 51
258.04162
  0
ARC
  5
34E
100
AcDbEntity
  8
0
370
    35
390
0
 62
     5
100
AcDbCircle
 10
1289.825195
 20
540.90863
 30
0.0
 40
2.44384
210
0.0
220
0.0
230
1.0
100
AcDbArc
 50
221.290524
 51
241.594641
  0
ARC
  5
34F
100
AcDbEntity
  8
0
370
    35
390
0
 62
     5
100
AcDbCircle
 10
1289.706543
 20
540.804382
 30
0.0
 40
2.285867
210
0.0
220
0.0
230
1.0
100
AcDbArc
 50
199.943109
 51
221.290524
  0
ARC
  5
350
100
AcDbEntity
  8
0
370
    35
390
0
 62
     5
100
AcDbCircle
 10
1289.187988
 20
540.616272
 30
0.0
 40
1.734273
210
0.0
220
0.0
230
1.0
100
AcDbArc
 50
175.022805
 51
199.943123
  0
ARC
  5
351
100
AcDbEntity
  8
0
370
    35
390
0
 62
     5
100
AcDbCircle
 10
1288.434937
 20
540.681824
 30
0.0
 40
0.978428
210
0.0
220
0.0
230
1.0
100
AcDbArc
 50
136.788185
 51
175.022764
  0
ARC
  5
352
100
AcDbEntity
  8
0
370
    35
390
0
 62
     5
100
AcDbCircle
 10
1288.630493
 20
540.498108
 30
0.0
 40
1.246744
210
0.0
220
0.0
230
1.0
100
AcDbArc
 50
113.802836
 51
136.788158
  0
ARC
  5
353
100
AcDbEntity
  8
0
370
    35
390
0
 62
     5
100
AcDbCircle
 10
1288.431763
 20
540.948669
 30
0.0
 40
0.754313
210
0.0
220
0.0
230
1.0
100
AcDbArc
 50
80.323066
 51
113.802802
  0
ARC
  5
354
100
AcDbEntity
  8
0
370
    35
390
0
 62
     5
100
AcDbCircle
 10
1288.366211
 20
540.56427
 30
0.0
 40
1.144286
210
0.0
220
0.0
230
1.0
100
AcDbArc
 50
54.488401
 51
80.323093
  0
ARC
  5
355
100
AcDbEntity
  8
0
370
    35
390
0
 62
     5
100
AcDbCircle
 10
1286.816162
 20
538.392151
 30
0.0
 40
3.812742
210
0.0
220
0.0
230
1.0
100
AcDbArc
 50
43.946103
 51
54.488418
  0
ARC
  5
356
100
AcDbEntity
  8
0
370
    35
390
0
 62
     5
100
AcDbCircle
 10
1368.607178
 20
464.90332
 30
0.0
 40
90.759102
210
0.0
220
0.0
230
1.0
100
AcDbArc
 50
126.527342
 51
127.141772
  0
ARC
  5
357
100
AcDbEntity
  8
0
370
    35
390
0
 62
     5
100
AcDbCircle
 10
1342.697021
 20
499.11084
 30
0.0
 40
47.8465
210
0.0
220
0.0
230
1.0
100
AcDbArc
 50
127.141745
 51
128.133871
  0
LINE
  5
358
100
AcDbEntity
  8
0
370
    35
390
0
 62
     5
 48
0.018119
100
AcDbLine
 10
1313.151733
 20
536.745483
 30
0.0
 11
1312.58252
 21
536.296875
 31
0.0
210
0.0
220
0.0
230
1.0
  0
ARC
  5
359
100
AcDbEntity
  8
0
370
    35
390
0
 62
     5
100
AcDbCircle
 10
1312.627808
 20
536.239685
 30
0.0
 40
0.072909
210
0.0
220
0.0
230
1.0
100
AcDbArc
 50
128.348339
 51
180.000036
  0
ARC
  5
35A
100
AcDbEntity
  8
0
370
    35
390
0
 62
     5
100
AcDbCircle
 10
1312.813843
 20
536.239685
 30
0.0
 40
0.258919
210
0.0
220
0.0
230
1.0
100
AcDbArc
 50
179.999964
 51
216.104047
  0
LINE
  5
35B
100
AcDbEntity
  8
0
370
    35
390
0
 62
     5
 48
0.042275
100
AcDbLine
 10
1312.604614
 20
536.087158
 30
0.0
 11
1313.603027
 21
534.722351
 31
0.0
210
0.0
220
0.0
230
1.0
  0
LINE
  5
35C
100
AcDbEntity
  8
0
370
    35
390
0
 62
     5
 48
0.042192
100
AcDbLine
 10
1313.603027
 20
534.722351
 30
0.0
 11
1314.603638
 21
533.363281
 31
0.0
210
0.0
220
0.0
230
1.0
  0
ARC
  5
35D
100
AcDbEntity
  8
0
370
    35
390
0
 62
     5
100
AcDbCircle
 10
1314.834106
 20
533.533508
 30
0.0
 40
0.286484
210
0.0
220
0.0
230
1.0
100
AcDbArc
 50
216.450584
 51
250.661061
  0
ARC
  5
35E
100
AcDbEntity
  8
0
370
    35
390
0
 62
     5
100
AcDbCircle
 10
1314.762817
 20
533.330444
 30
0.0
 40
0.07133
210
0.0
220
0.0
230
1.0
100
AcDbArc
 50
250.661061
 51
295.386882
  0
ARC
  5
35F
100
AcDbEntity
  8
0
370
    35
390
0
 62
     5
100
AcDbCircle
 10
1314.124023
 20
534.676758
 30
0.0
 40
1.561507
210
0.0
220
0.0
230
1.0
100
AcDbArc
 50
295.386807
 51
300.144662
  0
ARC
  5
360
100
AcDbEntity
  8
0
370
    35
390
0
 62
     5
100
AcDbCircle
 10
1314.035767
 20
534.828674
 30
0.0
 40
1.737176
210
0.0
220
0.0
230
1.0
100
AcDbArc
 50
300.144689
 51
305.460782
  0
ARC
  5
361
100
AcDbEntity
  8
0
370
    35
390
0
 62
     5
100
AcDbCircle
 10
1313.463623
 20
535.631897
 30
0.0
 40
2.723316
210
0.0
220
0.0
230
1.0
100
AcDbArc
 50
305.460782
 51
309.256622
  0
LINE
  5
362
100
AcDbEntity
  8
0
370
    35
390
0
 62
     5
 48
0.011528
100
AcDbLine
 10
1315.187012
 20
533.523193
 30
0.0
 11
1315.544067
 21
533.815002
 31
0.0
210
0.0
220
0.0
230
1.0
  0
LINE
  5
363
100
AcDbEntity
  8
0
370
    35
390
0
 62
     5
 48
0.027313
100
AcDbLine
 10
1315.544067
 20
533.815002
 30
0.0
 11
1314.894409
 21
534.693359
 31
0.0
210
0.0
220
0.0
230
1.0
  0
ARC
  5
364
100
AcDbEntity
  8
0
370
    35
390
0
 62
     5
100
AcDbCircle
 10
1328.932617
 20
545.074524
 30
0.0
 40
17.459614
210
0.0
220
0.0
230
1.0
100
AcDbArc
 50
215.085884
 51
216.48274
  0
ARC
  5
365
100
AcDbEntity
  8
0
370
    35
390
0
 62
     5
100
AcDbCircle
 10
1323.24231
 20
541.077454
 30
0.0
 40
10.505763
210
0.0
220
0.0
230
1.0
100
AcDbArc
 50
213.042265
 51
215.08583
  0
ARC
  5
366
100
AcDbEntity
  8
0
370
    35
390
0
 62
     5
100
AcDbCircle
 10
1327.493652
 20
543.842712
 30
0.0
 40
15.577324
210
0.0
220
0.0
230
1.0
100
AcDbArc
 50
211.887689
 51
213.042292
  0
ARC
  5
367
100
AcDbEntity
  8
0
370
    35
390
0
 62
     5
100
AcDbCircle
 10
1314.3927
 20
535.692017
 30
0.0
 40
0.147853
210
0.0
220
0.0
230
1.0
100
AcDbArc
 50
180.000009
 51
211.887662
  0
ARC
  5
368
100
AcDbEntity
  8
0
370
    35
390
0
 62
     5
100
AcDbCircle
 10
1314.397583
 20
535.692017
 30
0.0
 40
0.152698
210
0.0
220
0.0
230
1.0
100
AcDbArc
 50
131.431418
 51
180.000022
  0
ARC
  5
369
100
AcDbEntity
  8
0
370
    35
390
0
 62
     5
100
AcDbCircle
 10
1319.781616
 20
529.591736
 30
0.0
 40
8.289154
210
0.0
220
0.0
230
1.0
100
AcDbArc
 50
128.667828
 51
131.431404
  0
ARC
  5
36A
100
AcDbEntity
  8
0
370
    35
390
0
 62
     5
100
AcDbCircle
 10
1319.03064
 20
530.530212
 30
0.0
 40
7.08717
210
0.0
220
0.0
230
1.0
100
AcDbArc
 50
125.465015
 51
128.667869
  0
ARC
  5
36B
100
AcDbEntity
  8
0
370
    35
390
0
 62
     5
100
AcDbCircle
 10
1315.067139
 20
536.094116
 30
0.0
 40
0.255836
210
0.0
220
0.0
230
1.0
100
AcDbArc
 50
89.999968
 51
125.465111
  0
ARC
  5
36C
100
AcDbEntity
  8
0
370
    35
390
0
 62
     5
100
AcDbCircle
 10
1315.067139
 20
536.296326
 30
0.0
 40
0.053651
210
0.0
220
0.0
230
1.0
100
AcDbArc
 50
39.778028
 51
89.999996
  0
ARC
  5
36D
100
AcDbEntity
  8
0
370
    35
390
0
 62
     5
100
AcDbCircle
 10
1294.89624
 20
519.503601
 30
0.0
 40
26.299789
210
0.0
220
0.0
230
1.0
100
AcDbArc
 50
39.132275
 51
39.77811
  0
ARC
  5
36E
100
AcDbEntity
  8
0
370
    35
390
0
 62
     5
100
AcDbCircle
 10
1306.415405
 20
528.875793
 30
0.0
 40
11.449564
210
0.0
220
0.0
230
1.0
100
AcDbArc
 50
37.393121
 51
39.132356
  0
ARC
  5
36F
100
AcDbEntity
  8
0
370
    35
390
0
 62
     5
100
AcDbCircle
 10
1298.840942
 20
523.086121
 30
0.0
 40
20.983324
210
0.0
220
0.0
230
1.0
100
AcDbArc
 50
36.28803
 51
37.393144
  0
ARC
  5
370
100
AcDbEntity
  8
0
370
    35
390
0
 62
     5
100
AcDbCircle
 10
1392.50354
 20
591.85791
 30
0.0
 40
95.215843
210
0.0
220
0.0
230
1.0
100
AcDbArc
 50
216.28797
 51
216.530224
  0
ARC
  5
371
100
AcDbEntity
  8
0
370
    35
390
0
 62
     5
100
AcDbCircle
 10
1355.289307
 20
564.290405
 30
0.0
 40
48.903179
210
0.0
220
0.0
230
1.0
100
AcDbArc
 50
216.53021
 51
216.928984
  0
LINE
  5
372
100
AcDbEntity
  8
0
370
    35
390
0
 62
     5
 48
0.007618
100
AcDbLine
 10
1316.197021
 20
534.908203
 30
0.0
 11
1316.380249
 21
534.664734
 31
0.0
210
0.0
220
0.0
230
1.0
  0
ARC
  5
373
100
AcDbEntity
  8
0
370
    35
390
0
 62
     5
100
AcDbCircle
 10
1316.389648
 20
534.671875
 30
0.0
 40
0.011888
210
0.0
220
0.0
230
1.0
100
AcDbArc
 50
216.963544
 51
269.999861
  0
ARC
  5
374
100
AcDbEntity
  8
0
370
    35
390
0
 62
     5
100
AcDbCircle
 10
1316.389648
 20
534.678223
 30
0.0
 40
0.018214
210
0.0
220
0.0
230
1.0
100
AcDbArc
 50
270.000134
 51
305.372185
  0
LINE
  5
375
100
AcDbEntity
  8
0
370
    35
390
0
 62
     5
 48
0.003733
100
AcDbLine
 10
1316.400269
 20
534.66333
 30
0.0
 11
1316.521973
 21
534.749878
 31
0.0
210
0.0
220
0.0
230
1.0
  0
ARC
  5
376
100
AcDbEntity
  8
0
370
    35
390
0
 62
     5
100
AcDbCircle
 10
1306.889648
 20
548.267334
 30
0.0
 40
16.598223
210
0.0
220
0.0
230
1.0
100
AcDbArc
 50
305.472944
 51
306.056679
  0
ARC
  5
377
100
AcDbEntity
  8
0
370
    35
390
0
 62
     5
100
AcDbCircle
 10
1298.18335
 20
560.225586
 30
0.0
 40
31.390181
210
0.0
220
0.0
230
1.0
100
AcDbArc
 50
306.056706
 51
306.419061
  0
LINE
  5
378
100
AcDbEntity
  8
0
370
    35
390
0
 62
     5
 48
0.01289
100
AcDbLine
 10
1316.819214
 20
534.966064
 30
0.0
 11
1317.234131
 21
535.272156
 31
0.0
210
0.0
220
0.0
230
1.0
  0
LINE
  5
379
100
AcDbEntity
  8
0
370
    35
390
0
 62
     5
 48
0.027715
100
AcDbLine
 10
1317.234131
 20
535.272156
 30
0.0
 11
1316.565063
 21
536.156067
 31
0.0
210
0.0
220
0.0
230
1.0
  0
ARC
  5
37A
100
AcDbEntity
  8
0
370
    35
390
0
 62
     5
100
AcDbCircle
 10
1345.912598
 20
558.372803
 30
0.0
 40
36.808502
210
0.0
220
0.0
230
1.0
100
AcDbArc
 50
216.040158
 51
217.126485
  0
ARC
  5
37B
100
AcDbEntity
  8
0
370
    35
390
0
 62
     5
100
AcDbCircle
 10
1316.970459
 20
537.314087
 30
0.0
 40
1.015799
210
0.0
220
0.0
230
1.0
100
AcDbArc
 50
201.558886
 51
216.040239
  0
ARC
  5
37C
100
AcDbEntity
  8
0
370
    35
390
0
 62
     5
100
AcDbCircle
 10
1316.196777
 20
537.008423
 30
0.0
 40
0.183946
210
0.0
220
0.0
230
1.0
100
AcDbArc
 50
154.703539
 51
201.558913
  0
ARC
  5
37D
100
AcDbEntity
  8
0
370
    35
390
0
 62
     5
100
AcDbCircle
 10
1316.363037
 20
536.929871
 30
0.0
 40
0.367748
210
0.0
220
0.0
230
1.0
100
AcDbArc
 50
126.764459
 51
154.703593
  0
ARC
  5
37E
100
AcDbEntity
  8
0
370
    35
390
0
 62
     5
100
AcDbCircle
 10
1318.314819
 20
534.317444
 30
0.0
 40
3.628849
210
0.0
220
0.0
230
1.0
100
AcDbArc
 50
119.232017
 51
126.764377
  0
ARC
  5
37F
100
AcDbEntity
  8
0
370
    35
390
0
 62
     5
100
AcDbCircle
 10
1316.677002
 20
537.244263
 30
0.0
 40
0.274881
210
0.0
220
0.0
230
1.0
100
AcDbArc
 50
69.559227
 51
119.231962
  0
ARC
  5
380
100
AcDbEntity
  8
0
370
    35
390
0
 62
     5
100
AcDbCircle
 10
1316.58667
 20
537.001892
 30
0.0
 40
0.533495
210
0.0
220
0.0
230
1.0
100
AcDbArc
 50
39.07541
 51
69.559289
  0
ARC
  5
381
100
AcDbEntity
  8
0
370
    35
390
0
 62
     5
100
AcDbCircle
 10
1301.793945
 20
524.990723
 30
0.0
 40
19.588467
210
0.0
220
0.0
230
1.0
100
AcDbArc
 50
36.80915
 51
39.075471
  0
LINE
  5
382
100
AcDbEntity
  8
0
370
    35
390
0
 62
     5
 48
0.028323
100
AcDbLine
 10
1317.477173
 20
536.727173
 30
0.0
 11
1318.156006
 21
535.820129
 31
0.0
210
0.0
220
0.0
230
1.0
  0
LINE
  5
383
100
AcDbEntity
  8
0
370
    35
390
0
 62
     5
 48
0.011799
100
AcDbLine
 10
1318.156006
 20
535.820129
 30
0.0
 11
1318.540405
 21
536.093933
 31
0.0
210
0.0
220
0.0
230
1.0
  0
ARC
  5
384
100
AcDbEntity
  8
0
370
    35
390
0
 62
     5
100
AcDbCircle
 10
1315.911377
 20
539.786072
 30
0.0
 40
4.532509
210
0.0
220
0.0
230
1.0
100
AcDbArc
 50
305.453191
 51
307.773351
  0
ARC
  5
385
100
AcDbEntity
  8
0
370
    35
390
0
 62
     5
100
AcDbCircle
 10
1317.041382
 20
538.327881
 30
0.0
 40
2.687773
210
0.0
220
0.0
230
1.0
100
AcDbArc
 50
307.773351
 51
311.204866
  0
ARC
  5
386
100
AcDbEntity
  8
0
370
    35
390
0
 62
     5
100
AcDbCircle
 10
1316.657349
 20
538.766541
 30
0.0
 40
3.27078
210
0.0
220
0.0
230
1.0
100
AcDbArc
 50
311.204808
 51
313.516967
  0
ARC
  5
387
100
AcDbEntity
  8
0
370
    35
390
0
 62
     5
100
AcDbCircle
 10
1318.875366
 20
536.430542
 30
0.0
 40
0.049491
210
0.0
220
0.0
230
1.0
100
AcDbArc
 50
313.516991
 51
359.999983
  0
ARC
  5
388
100
AcDbEntity
  8
0
370
    35
390
0
 62
     5
100
AcDbCircle
 10
1318.650757
 20
536.430542
 30
0.0
 40
0.274072
210
0.0
220
0.0
230
1.0
100
AcDbArc
 50
0.000044
 51
36.935887
  0
LINE
  5
389
100
AcDbEntity
  8
0
370
    35
390
0
 62
     5
 48
0.041923
100
AcDbLine
 10
1318.869873
 20
536.595276
 30
0.0
 11
1317.859741
 21
537.933838
 31
0.0
210
0.0
220
0.0
230
1.0
  0
LINE
  5
38A
100
AcDbEntity
  8
0
370
    35
390
0
 62
     5
 48
0.042388
100
AcDbLine
 10
1317.859741
 20
537.933838
 30
0.0
 11
1316.834106
 21
539.283997
 31
0.0
210
0.0
220
0.0
230
1.0
  0
ARC
  5
38B
100
AcDbEntity
  8
0
370
    35
390
0
 62
     5
100
AcDbCircle
 10
1316.721069
 20
539.197876
 30
0.0
 40
0.142082
210
0.0
220
0.0
230
1.0
100
AcDbArc
 50
37.300554
 51
89.999996
  0
ARC
  5
38C
100
AcDbEntity
  8
0
370
    35
390
0
 62
     5
100
AcDbCircle
 10
1316.721069
 20
539.213806
 30
0.0
 40
0.126185
210
0.0
220
0.0
230
1.0
100
AcDbArc
 50
90.000009
 51
124.994484
  0
LINE
  5
38D
100
AcDbEntity
  8
0
370
    35
390
0
 62
     5
 48
0.018231
100
AcDbLine
 10
1316.648682
 20
539.317139
 30
0.0
 11
1316.052002
 21
538.897888
 31
0.0
210
0.0
220
0.0
230
1.0
  0
ARC
  5
38E
100
AcDbEntity
  8
0
370
    35
390
0
 62
     5
100
AcDbCircle
 10
1349.67981
 20
491.21228
 30
0.0
 40
58.350204
210
0.0
220
0.0
230
1.0
100
AcDbArc
 50
125.19148
 51
126.011266
  0
ARC
  5
38F
100
AcDbEntity
  8
0
370
    35
390
0
 62
     5
100
AcDbCircle
 10
1379.027832
 20
450.834839
 30
0.0
 40
108.266571
210
0.0
220
0.0
230
1.0
100
AcDbArc
 50
126.011239
 51
126.527356
  0
ARC
  5
390
100
AcDbEntity
  8
0
370
    35
390
0
 62
     5
100
AcDbCircle
 10
1286.402344
 20
535.221558
 30
0.0
 40
4.460194
210
0.0
220
0.0
230
1.0
100
AcDbArc
 50
136.145355
 51
144.614844
  0
ARC
  5
391
100
AcDbEntity
  8
0
370
    35
390
0
 62
     5
100
AcDbCircle
 10
1286.253418
 20
535.327271
 30
0.0
 40
4.277558
210
0.0
220
0.0
230
1.0
100
AcDbArc
 50
144.614858
 51
153.35418
  0
ARC
  5
392
100
AcDbEntity
  8
0
370
    35
390
0
 62
     5
100
AcDbCircle
 10
1286.080933
 20
535.413879
 30
0.0
 40
4.084472
210
0.0
220
0.0
230
1.0
100
AcDbArc
 50
153.354126
 51
162.299638
  0
ARC
  5
393
100
AcDbEntity
  8
0
370
    35
390
0
 62
     5
100
AcDbCircle
 10
1285.59082
 20
535.570313
 30
0.0
 40
3.570036
210
0.0
220
0.0
230
1.0
100
AcDbArc
 50
162.299624
 51
172.195325
  0
ARC
  5
394
100
AcDbEntity
  8
0
370
    35
390
0
 62
     5
100
AcDbCircle
 10
1284.167114
 20
535.765442
 30
0.0
 40
2.133055
210
0.0
220
0.0
230
1.0
100
AcDbArc
 50
172.19538
 51
204.719802
  0
ARC
  5
395
100
AcDbEntity
  8
0
370
    35
390
0
 62
     5
100
AcDbCircle
 10
1284.95874
 20
536.129822
 30
0.0
 40
3.004458
210
0.0
220
0.0
230
1.0
100
AcDbArc
 50
204.719761
 51
229.884883
  0
ARC
  5
396
100
AcDbEntity
  8
0
370
    35
390
0
 62
     5
100
AcDbCircle
 10
1285.005493
 20
536.185364
 30
0.0
 40
3.077045
210
0.0
220
0.0
230
1.0
100
AcDbArc
 50
229.884883
 51
254.710537
  0
ARC
  5
397
100
AcDbEntity
  8
0
370
    35
390
0
 62
     5
100
AcDbCircle
 10
1284.799072
 20
535.430359
 30
0.0
 40
2.294376
210
0.0
220
0.0
230
1.0
100
AcDbArc
 50
254.710619
 51
285.641295
  0
ARC
  5
398
100
AcDbEntity
  8
0
370
    35
390
0
 62
     5
100
AcDbCircle
 10
1284.683838
 20
535.841919
 30
0.0
 40
2.721767
210
0.0
220
0.0
230
1.0
100
AcDbArc
 50
285.641377
 51
301.952934
  0
ARC
  5
399
100
AcDbEntity
  8
0
370
    35
390
0
 62
     5
100
AcDbCircle
 10
1284.268799
 20
536.507324
 30
0.0
 40
3.505964
210
0.0
220
0.0
230
1.0
100
AcDbArc
 50
301.952961
 51
315.444501
  0
ARC
  5
39A
100
AcDbEntity
  8
0
370
    35
390
0
 62
     5
100
AcDbCircle
 10
1283.78833
 20
536.980347
 30
0.0
 40
4.180223
210
0.0
220
0.0
230
1.0
100
AcDbArc
 50
315.444528
 51
327.733923
  0
ARC
  5
39B
100
AcDbEntity
  8
0
370
    35
390
0
 62
     5
100
AcDbCircle
 10
1282.401733
 20
537.855774
 30
0.0
 40
5.820015
210
0.0
220
0.0
230
1.0
100
AcDbArc
 50
327.733951
 51
337.323564
  0
LINE
  5
39C
100
AcDbEntity
  8
0
370
    35
390
0
 62
     5
 48
0.012563
100
AcDbLine
 10
1287.771851
 20
535.612
 30
0.0
 11
1287.965576
 21
536.075684
 31
0.0
210
0.0
220
0.0
230
1.0
  0
LINE
  5
39D
100
AcDbEntity
  8
0
370
    35
390
0
 62
     5
 48
0.013401
100
AcDbLine
 10
1287.965576
 20
536.075684
 30
0.0
 11
1287.503906
 21
536.348083
 31
0.0
210
0.0
220
0.0
230
1.0
  0
ARC
  5
39E
100
AcDbEntity
  8
0
370
    35
390
0
 62
     5
100
AcDbCircle
 10
1283.923462
 20
530.279663
 30
0.0
 40
7.045971
210
0.0
220
0.0
230
1.0
100
AcDbArc
 50
59.458798
 51
61.128602
  0
ARC
  5
39F
100
AcDbEntity
  8
0
370
    35
390
0
 62
     5
100
AcDbCircle
 10
1285.623047
 20
533.362183
 30
0.0
 40
3.525891
210
0.0
220
0.0
230
1.0
100
AcDbArc
 50
61.128663
 51
63.931663
  0
ARC
  5
3A0
100
AcDbEntity
  8
0
370
    35
390
0
 62
     5
100
AcDbCircle
 10
1284.538208
 20
531.144653
 30
0.0
 40
5.994595
210
0.0
220
0.0
230
1.0
100
AcDbArc
 50
63.93167
 51
65.285441
  0
ARC
  5
3A1
100
AcDbEntity
  8
0
370
    35
390
0
 62
     5
100
AcDbCircle
 10
1287.038086
 20
536.576172
 30
0.0
 40
0.015391
210
0.0
220
0.0
230
1.0
100
AcDbArc
 50
65.285407
 51
154.628994
  0
LINE
  5
3A2
100
AcDbEntity
  8
0
370
    35
390
0
 62
     5
 48
0.000801
100
AcDbLine
 10
1287.02417
 20
536.582764
 30
0.0
 11
1287.010498
 21
536.553772
 31
0.0
210
0.0
220
0.0
230
1.0
  0
LINE
  5
3A3
100
AcDbEntity
  8
0
370
    35
390
0
 62
     5
 48
0.006024
100
AcDbLine
 10
1287.010498
 20
536.553772
 30
0.0
 11
1286.907227
 21
536.33606
 31
0.0
210
0.0
220
0.0
230
1.0
  0
LINE
  5
3A4
100
AcDbEntity
  8
0
370
    35
390
0
 62
     5
 48
0.006924
100
AcDbLine
 10
1286.907227
 20
536.33606
 30
0.0
 11
1286.788574
 21
536.085815
 31
0.0
210
0.0
220
0.0
230
1.0
  0
LINE
  5
3A5
100
AcDbEntity
  8
0
370
    35
390
0
 62
     5
 48
0.008019
100
AcDbLine
 10
1286.788574
 20
536.085815
 30
0.0
 11
1286.651245
 21
535.795959
 31
0.0
210
0.0
220
0.0
230
1.0
  0
ARC
  5
3A6
100
AcDbEntity
  8
0
370
    35
390
0
 62
     5
100
AcDbCircle
 10
1283.706665
 20
537.191711
 30
0.0
 40
3.258671
210
0.0
220
0.0
230
1.0
100
AcDbArc
 50
319.855765
 51
334.639299
  0
ARC
  5
3A7
100
AcDbEntity
  8
0
370
    35
390
0
 62
     5
100
AcDbCircle
 10
1284.925659
 20
536.163574
 30
0.0
 40
1.663903
210
0.0
220
0.0
230
1.0
100
AcDbArc
 50
295.411662
 51
319.855819
  0
ARC
  5
3A8
100
AcDbEntity
  8
0
370
    35
390
0
 62
     5
100
AcDbCircle
 10
1285.083374
 20
535.831543
 30
0.0
 40
1.296338
210
0.0
220
0.0
230
1.0
100
AcDbArc
 50
267.036242
 51
295.411716
  0
ARC
  5
3A9
100
AcDbEntity
  8
0
370
    35
390
0
 62
     5
100
AcDbCircle
 10
1285.097778
 20
536.109741
 30
0.0
 40
1.574893
210
0.0
220
0.0
230
1.0
100
AcDbArc
 50
242.512099
 51
267.036214
  0
ARC
  5
3AA
100
AcDbEntity
  8
0
370
    35
390
0
 62
     5
100
AcDbCircle
 10
1285.371582
 20
536.635803
 30
0.0
 40
2.167947
210
0.0
220
0.0
230
1.0
100
AcDbArc
 50
224.307022
 51
242.512072
  0
ARC
  5
3AB
100
AcDbEntity
  8
0
370
    35
390
0
 62
     5
100
AcDbCircle
 10
1285.109863
 20
536.380371
 30
0.0
 40
1.802208
210
0.0
220
0.0
230
1.0
100
AcDbArc
 50
203.397095
 51
224.307077
  0
ARC
  5
3AC
100
AcDbEntity
  8
0
370
    35
390
0
 62
     5
100
AcDbCircle
 10
1284.939209
 20
536.306519
 30
0.0
 40
1.61629
210
0.0
220
0.0
230
1.0
100
AcDbArc
 50
181.164201
 51
203.39715
  0
ARC
  5
3AD
100
AcDbEntity
  8
0
370
    35
390
0
 62
     5
100
AcDbCircle
 10
1284.810181
 20
536.303894
 30
0.0
 40
1.487235
210
0.0
220
0.0
230
1.0
100
AcDbArc
 50
157.50001
 51
181.164187
  0
ARC
  5
3AE
100
AcDbEntity
  8
0
370
    35
390
0
 62
     5
100
AcDbCircle
 10
1284.392456
 20
536.476929
 30
0.0
 40
1.035158
210
0.0
220
0.0
230
1.0
100
AcDbArc
 50
146.013134
 51
157.50001
  0
ARC
  5
3AF
100
AcDbEntity
  8
0
370
    35
390
0
 62
     5
100
AcDbCircle
 10
1286.254272
 20
535.221741
 30
0.0
 40
3.280557
210
0.0
220
0.0
230
1.0
100
AcDbArc
 50
141.150121
 51
146.013107
  0
ARC
  5
3B0
100
AcDbEntity
  8
0
370
    35
390
0
 62
     5
100
AcDbCircle
 10
1286.523193
 20
535.005127
 30
0.0
 40
3.625835
210
0.0
220
0.0
230
1.0
100
AcDbArc
 50
136.397075
 51
141.150108
  0
ARC
  5
3B1
100
AcDbEntity
  8
0
370
    35
390
0
 62
     5
100
AcDbCircle
 10
1285.89502
 20
535.603455
 30
0.0
 40
2.758262
210
0.0
220
0.0
230
1.0
100
AcDbArc
 50
130.562317
 51
136.396979
  0
LINE
  5
3B2
100
AcDbEntity
  8
0
370
    35
390
0
 62
     5
 48
0.016474
100
AcDbLine
 10
1284.101318
 20
537.698914
 30
0.0
 11
1284.601929
 21
538.127441
 31
0.0
210
0.0
220
0.0
230
1.0
  0
LINE
  5
3B3
100
AcDbEntity
  8
0
370
    35
390
0
 62
     5
 48
0.009788
100
AcDbLine
 10
1284.601929
 20
538.127441
 30
0.0
 11
1284.310913
 21
538.389343
 31
0.0
210
0.0
220
0.0
230
1.0
  0
ARC
  5
3B4
100
AcDbEntity
  8
0
370
    35
390
0
 62
     5
100
AcDbCircle
 10
1281.495728
 20
535.261536
 30
0.0
 40
4.208131
210
0.0
220
0.0
230
1.0
100
AcDbArc
 50
48.011275
 51
54.13542
  0
ARC
  5
3B5
100
AcDbEntity
  8
0
370
    35
390
0
 62
     5
100
AcDbCircle
 10
1283.770386
 20
538.407959
 30
0.0
 40
0.325586
210
0.0
220
0.0
230
1.0
100
AcDbArc
 50
54.135325
 51
93.949928
  0
ARC
  5
3B6
100
AcDbEntity
  8
0
370
    35
390
0
 62
     5
100
AcDbCircle
 10
1283.772705
 20
538.373962
 30
0.0
 40
0.359705
210
0.0
220
0.0
230
1.0
100
AcDbArc
 50
93.949928
 51
131.024188
  0
ARC
  5
3B7
100
AcDbEntity
  8
0
370
    35
390
0
 62
     5
100
AcDbCircle
 10
1287.091553
 20
534.559387
 30
0.0
 40
5.415872
210
0.0
220
0.0
230
1.0
100
AcDbArc
 50
131.024188
 51
136.145341
  0
ARC
  5
3B8
100
AcDbEntity
  8
0
370
    35
390
0
 62
     5
100
AcDbCircle
 10
1295.237183
 20
525.946838
 30
0.0
 40
15.616282
210
0.0
220
0.0
230
1.0
100
AcDbArc
 50
177.602923
 51
186.453472
  0
ARC
  5
3B9
100
AcDbEntity
  8
0
370
    35
390
0
 62
     5
100
AcDbCircle
 10
1283.129883
 20
524.577332
 30
0.0
 40
3.431743
210
0.0
220
0.0
230
1.0
100
AcDbArc
 50
186.453486
 51
213.69896
  0
ARC
  5
3BA
100
AcDbEntity
  8
0
370
    35
390
0
 62
     5
100
AcDbCircle
 10
1282.099976
 20
523.890503
 30
0.0
 40
2.193869
210
0.0
220
0.0
230
1.0
100
AcDbArc
 50
213.698919
 51
249.950059
  0
ARC
  5
3BB
100
AcDbEntity
  8
0
370
    35
390
0
 62
     5
100
AcDbCircle
 10
1283.026855
 20
526.430054
 30
0.0
 40
4.897235
210
0.0
220
0.0
230
1.0
100
AcDbArc
 50
249.950005
 51
269.847712
  0
ARC
  5
3BC
100
AcDbEntity
  8
0
370
    35
390
0
 62
     5
100
AcDbCircle
 10
1283.027222
 20
526.599426
 30
0.0
 40
5.066612
210
0.0
220
0.0
230
1.0
100
AcDbArc
 50
269.847684
 51
287.709011
  0
ARC
  5
3BD
100
AcDbEntity
  8
0
370
    35
390
0
 62
     5
100
AcDbCircle
 10
1283.972412
 20
523.639648
 30
0.0
 40
1.95963
210
0.0
220
0.0
230
1.0
100
AcDbArc
 50
287.708991
 51
323.996116
  0
ARC
  5
3BE
100
AcDbEntity
  8
0
370
    35
390
0
 62
     5
100
AcDbCircle
 10
1283.04541
 20
524.313293
 30
0.0
 40
3.105515
210
0.0
220
0.0
230
1.0
100
AcDbArc
 50
323.996061
 51
350.941185
  0
ARC
  5
3BF
100
AcDbEntity
  8
0
370
    35
390
0
 62
     5
100
AcDbCircle
 10
1269.435303
 20
526.483215
 30
0.0
 40
16.887491
210
0.0
220
0.0
230
1.0
100
AcDbArc
 50
350.941211
 51
358.631759
  0
LINE
  5
3C0
100
AcDbEntity
  8
0
370
    35
390
0
 62
     5
 48
0.043888
100
AcDbLine
 10
1286.317993
 20
526.079956
 30
0.0
 11
1286.359863
 21
527.834961
 31
0.0
210
0.0
220
0.0
230
1.0
  0
LINE
  5
3C1
100
AcDbEntity
  8
0
370
    35
390
0
 62
     5
 48
0.083369
100
AcDbLine
 10
1286.359863
 20
527.834961
 30
0.0
 11
1283.025757
 21
527.899963
 31
0.0
210
0.0
220
0.0
230
1.0
  0
LINE
  5
3C2
100
AcDbEntity
  8
0
370
    35
390
0
 62
     5
 48
0.083369
100
AcDbLine
 10
1283.025757
 20
527.899963
 30
0.0
 11
1279.69165
 21
527.964966
 31
0.0
210
0.0
220
0.0
230
1.0
  0
LINE
  5
3C3
100
AcDbEntity
  8
0
370
    35
390
0
 62
     5
 48
0.034155
100
AcDbLine
 10
1279.69165
 20
527.964966
 30
0.0
 11
1279.634521
 21
526.599976
 31
0.0
210
0.0
220
0.0
230
1.0
  0
ARC
  5
3C4
100
AcDbEntity
  8
0
370
    35
390
0
 62
     5
100
AcDbCircle
 10
1282.38147
 20
525.45697
 30
0.0
 40
2.613257
210
0.0
220
0.0
230
1.0
100
AcDbArc
 50
340.979163
 51
359.981077
  0
ARC
  5
3C5
100
AcDbEntity
  8
0
370
    35
390
0
 62
     5
100
AcDbCircle
 10
1283.09668
 20
525.210388
 30
0.0
 40
1.856656
210
0.0
220
0.0
230
1.0
100
AcDbArc
 50
316.42996
 51
340.979217
  0
ARC
  5
3C6
100
AcDbEntity
  8
0
370
    35
390
0
 62
     5
100
AcDbCircle
 10
1283.162598
 20
525.147766
 30
0.0
 40
1.765796
210
0.0
220
0.0
230
1.0
100
AcDbArc
 50
291.147363
 51
316.429988
  0
ARC
  5
3C7
100
AcDbEntity
  8
0
370
    35
390
0
 62
     5
100
AcDbCircle
 10
1282.991089
 20
525.590942
 30
0.0
 40
2.240946
210
0.0
220
0.0
230
1.0
100
AcDbArc
 50
270.000052
 51
291.147274
  0
ARC
  5
3C8
100
AcDbEntity
  8
0
370
    35
390
0
 62
     5
100
AcDbCircle
 10
1282.991089
 20
526.121704
 30
0.0
 40
2.771744
210
0.0
220
0.0
230
1.0
100
AcDbArc
 50
251.868584
 51
270.000052
  0
ARC
  5
3C9
100
AcDbEntity
  8
0
370
    35
390
0
 62
     5
100
AcDbCircle
 10
1282.62085
 20
524.99115
 30
0.0
 40
1.5821
210
0.0
220
0.0
230
1.0
100
AcDbArc
 50
224.280617
 51
251.868584
  0
ARC
  5
3CA
100
AcDbEntity
  8
0
370
    35
390
0
 62
     5
100
AcDbCircle
 10
1282.65332
 20
525.022766
 30
0.0
 40
1.627384
210
0.0
220
0.0
230
1.0
100
AcDbArc
 50
197.160326
 51
224.280603
  0
ARC
  5
3CB
100
AcDbEntity
  8
0
370
    35
390
0
 62
     5
100
AcDbCircle
 10
1283.968018
 20
525.428711
 30
0.0
 40
3.003317
210
0.0
220
0.0
230
1.0
100
AcDbArc
 50
180.014912
 51
197.160367
  0
LINE
  5
3CC
100
AcDbEntity
  8
0
370
    35
390
0
 62
     5
 48
0.017925
100
AcDbLine
 10
1280.964722
 20
525.427979
 30
0.0
 11
1280.964478
 21
526.144958
 31
0.0
210
0.0
220
0.0
230
1.0
  0
LINE
  5
3CD
100
AcDbEntity
  8
0
370
    35
390
0
 62
     5
 48
0.050391
100
AcDbLine
 10
1280.964478
 20
526.144958
 30
0.0
 11
1282.979736
 21
526.10614
 31
0.0
210
0.0
220
0.0
230
1.0
  0
LINE
  5
3CE
100
AcDbEntity
  8
0
370
    35
390
0
 62
     5
 48
0.050388
100
AcDbLine
 10
1282.979736
 20
526.10614
 30
0.0
 11
1284.994873
 21
526.067261
 31
0.0
210
0.0
220
0.0
230
1.0
  0
LINE
  5
3CF
100
AcDbEntity
  8
0
370
    35
390
0
 62
     5
 48
0.015279
100
AcDbLine
 10
1284.994873
 20
526.067261
 30
0.0
 11
1284.994629
 21
525.456116
 31
0.0
210
0.0
220
0.0
230
1.0
  0
LINE
  5
3D0
100
AcDbEntity
  8
0
370
    35
390
0
 62
     5
 48
0.012255
100
AcDbLine
 10
1320.322388
 20
527.935303
 30
0.0
 11
1319.834839
 21
527.884277
 31
0.0
210
0.0
220
0.0
230
1.0
  0
LINE
  5
3D1
100
AcDbEntity
  8
0
370
    35
390
0
 62
     5
 48
0.03676
100
AcDbLine
 10
1319.834839
 20
527.884277
 30
0.0
 11
1319.834839
 21
526.413879
 31
0.0
210
0.0
220
0.0
230
1.0
  0
LINE
  5
3D2
100
AcDbEntity
  8
0
370
    35
390
0
 62
     5
 48
0.03676
100
AcDbLine
 10
1319.834839
 20
526.413879
 30
0.0
 11
1319.834839
 21
524.943481
 31
0.0
210
0.0
220
0.0
230
1.0
  0
LINE
  5
3D3
100
AcDbEntity
  8
0
370
    35
390
0
 62
     5
 48
0.016775
100
AcDbLine
 10
1319.834839
 20
524.943481
 30
0.0
 11
1319.169678
 21
524.855225
 31
0.0
210
0.0
220
0.0
230
1.0
  0
ARC
  5
3D4
100
AcDbEntity
  8
0
370
    35
390
0
 62
     5
100
AcDbCircle
 10
1318.494995
 20
529.941589
 30
0.0
 40
5.130886
210
0.0
220
0.0
230
1.0
100
AcDbArc
 50
274.62715
 51
277.556427
  0
ARC
  5
3D5
100
AcDbEntity
  8
0
370
    35
390
0
 62
     5
100
AcDbCircle
 10
1318.648926
 20
528.039734
 30
0.0
 40
3.222851
210
0.0
220
0.0
230
1.0
100
AcDbArc
 50
270.4771
 51
274.62715
  0
ARC
  5
3D6
100
AcDbEntity
  8
0
370
    35
390
0
 62
     5
100
AcDbCircle
 10
1318.648193
 20
528.125916
 30
0.0
 40
3.309003
210
0.0
220
0.0
230
1.0
100
AcDbArc
 50
267.187599
 51
270.477045
  0
ARC
  5
3D7
100
AcDbEntity
  8
0
370
    35
390
0
 62
     5
100
AcDbCircle
 10
1318.490601
 20
524.917664
 30
0.0
 40
0.096886
210
0.0
220
0.0
230
1.0
100
AcDbArc
 50
225.108067
 51
267.187599
  0
ARC
  5
3D8
100
AcDbEntity
  8
0
370
    35
390
0
 62
     5
100
AcDbCircle
 10
1318.505981
 20
524.933044
 30
0.0
 40
0.118657
210
0.0
220
0.0
230
1.0
100
AcDbArc
 50
185.935183
 51
225.10804
  0
ARC
  5
3D9
100
AcDbEntity
  8
0
370
    35
390
0
 62
     5
100
AcDbCircle
 10
1342.915771
 20
527.470764
 30
0.0
 40
24.660046
210
0.0
220
0.0
230
1.0
100
AcDbArc
 50
185.038858
 51
185.935197
  0
ARC
  5
3DA
100
AcDbEntity
  8
0
370
    35
390
0
 62
     5
100
AcDbCircle
 10
1332.019287
 20
526.509949
 30
0.0
 40
13.721295
210
0.0
220
0.0
230
1.0
100
AcDbArc
 50
183.1312
 51
185.038871
  0
ARC
  5
3DB
100
AcDbEntity
  8
0
370
    35
390
0
 62
     5
100
AcDbCircle
 10
1342.244751
 20
527.069397
 30
0.0
 40
23.962061
210
0.0
220
0.0
230
1.0
100
AcDbArc
 50
181.87465
 51
183.131241
  0
LINE
  5
3DC
100
AcDbEntity
  8
0
370
    35
390
0
 62
     5
 48
0.033879
100
AcDbLine
 10
1318.295532
 20
526.285522
 30
0.0
 11
1318.251221
 21
527.639954
 31
0.0
210
0.0
220
0.0
230
1.0
  0
LINE
  5
3DD
100
AcDbEntity
  8
0
370
    35
390
0
 62
     5
 48
0.008643
100
AcDbLine
 10
1318.251221
 20
527.639954
 30
0.0
 11
1317.905518
 21
527.638184
 31
0.0
210
0.0
220
0.0
230
1.0
  0
ARC
  5
3DE
100
AcDbEntity
  8
0
370
    35
390
0
 62
     5
100
AcDbCircle
 10
1317.916016
 20
525.59436
 30
0.0
 40
2.043864
210
0.0
220
0.0
230
1.0
100
AcDbArc
 50
90.294151
 51
94.64169
  0
ARC
  5
3DF
100
AcDbEntity
  8
0
370
    35
390
0
 62
     5
100
AcDbCircle
 10
1318.059082
 20
523.831909
 30
0.0
 40
3.812148
210
0.0
220
0.0
230
1.0
100
AcDbArc
 50
94.641731
 51
97.368192
  0
ARC
  5
3E0
100
AcDbEntity
  8
0
370
    35
390
0
 62
     5
100
AcDbCircle
 10
1318.051025
 20
523.894226
 30
0.0
 40
3.749279
210
0.0
220
0.0
230
1.0
100
AcDbArc
 50
97.368199
 51
100.104516
  0
ARC
  5
3E1
100
AcDbEntity
  8
0
370
    35
390
0
 62
     5
100
AcDbCircle
 10
1317.696899
 20
525.881531
 30
0.0
 40
1.730644
210
0.0
220
0.0
230
1.0
100
AcDbArc
 50
100.104502
 51
104.982159
  0
ARC
  5
3E2
100
AcDbEntity
  8
0
370
    35
390
0
 62
     5
100
AcDbCircle
 10
1317.365845
 20
527.118469
 30
0.0
 40
0.450205
210
0.0
220
0.0
230
1.0
100
AcDbArc
 50
104.982214
 51
130.734984
  0
ARC
  5
3E3
100
AcDbEntity
  8
0
370
    35
390
0
 62
     5
100
AcDbCircle
 10
1317.233154
 20
527.272705
 30
0.0
 40
0.246695
210
0.0
220
0.0
230
1.0
100
AcDbArc
 50
130.734998
 51
171.11009
  0
ARC
  5
3E4
100
AcDbEntity
  8
0
370
    35
390
0
 62
     5
100
AcDbCircle
 10
1318.402222
 20
527.089783
 30
0.0
 40
1.430013
210
0.0
220
0.0
230
1.0
100
AcDbArc
 50
171.109995
 51
182.985717
  0
ARC
  5
3E5
100
AcDbEntity
  8
0
370
    35
390
0
 62
     5
100
AcDbCircle
 10
1388.488159
 20
530.7453
 30
0.0
 40
71.611282
210
0.0
220
0.0
230
1.0
100
AcDbArc
 50
182.985676
 51
183.699116
  0
LINE
  5
3E6
100
AcDbEntity
  8
0
370
    35
390
0
 62
     5
 48
0.033699
100
AcDbLine
 10
1317.026123
 20
526.125122
 30
0.0
 11
1317.113037
 21
524.779968
 31
0.0
210
0.0
220
0.0
230
1.0
  0
LINE
  5
3E7
100
AcDbEntity
  8
0
370
    35
390
0
 62
     5
 48
0.017978
100
AcDbLine
 10
1317.113037
 20
524.779968
 30
0.0
 11
1316.393921
 21
524.779968
 31
0.0
210
0.0
220
0.0
230
1.0
  0
LINE
  5
3E8
100
AcDbEntity
  8
0
370
    35
390
0
 62
     5
 48
0.017975
100
AcDbLine
 10
1316.393921
 20
524.779968
 30
0.0
 11
1315.674927
 21
524.779968
 31
0.0
210
0.0
220
0.0
230
1.0
  0
LINE
  5
3E9
100
AcDbEntity
  8
0
370
    35
390
0
 62
     5
 48
0.023563
100
AcDbLine
 10
1315.674927
 20
524.779968
 30
0.0
 11
1315.673462
 21
525.722473
 31
0.0
210
0.0
220
0.0
230
1.0
  0
ARC
  5
3EA
100
AcDbEntity
  8
0
370
    35
390
0
 62
     5
100
AcDbCircle
 10
1302.24353
 20
525.702087
 30
0.0
 40
13.429987
210
0.0
220
0.0
230
1.0
100
AcDbArc
 50
0.086982
 51
1.779239
  0
ARC
  5
3EB
100
AcDbEntity
  8
0
370
    35
390
0
 62
     5
100
AcDbCircle
 10
1299.942993
 20
525.630615
 30
0.0
 40
15.731553
210
0.0
220
0.0
230
1.0
100
AcDbArc
 50
1.779274
 51
3.282235
  0
ARC
  5
3EC
100
AcDbEntity
  8
0
370
    35
390
0
 62
     5
100
AcDbCircle
 10
1301.591919
 20
525.725159
 30
0.0
 40
14.079887
210
0.0
220
0.0
230
1.0
100
AcDbArc
 50
3.282334
 51
4.794003
  0
ARC
  5
3ED
100
AcDbEntity
  8
0
370
    35
390
0
 62
     5
100
AcDbCircle
 10
1312.481445
 20
526.638428
 30
0.0
 40
3.152209
210
0.0
220
0.0
230
1.0
100
AcDbArc
 50
4.794045
 51
9.385572
  0
ARC
  5
3EE
100
AcDbEntity
  8
0
370
    35
390
0
 62
     5
100
AcDbCircle
 10
1312.311523
 20
526.610352
 30
0.0
 40
3.324427
210
0.0
220
0.0
230
1.0
100
AcDbArc
 50
9.385593
 51
14.701231
  0
ARC
  5
3EF
100
AcDbEntity
  8
0
370
    35
390
0
 62
     5
100
AcDbCircle
 10
1315.312622
 20
527.397766
 30
0.0
 40
0.221719
210
0.0
220
0.0
230
1.0
100
AcDbArc
 50
14.701229
 51
53.069515
  0
ARC
  5
3F0
100
AcDbEntity
  8
0
370
    35
390
0
 62
     5
100
AcDbCircle
 10
1315.283936
 20
527.359497
 30
0.0
 40
0.269571
210
0.0
220
0.0
230
1.0
100
AcDbArc
 50
53.069511
 51
86.332068
  0
ARC
  5
3F1
100
AcDbEntity
  8
0
370
    35
390
0
 62
     5
100
AcDbCircle
 10
1314.942871
 20
522.039795
 30
0.0
 40
5.600203
210
0.0
220
0.0
230
1.0
100
AcDbArc
 50
86.33202
 51
90.000016
  0
LINE
  5
3F2
100
AcDbEntity
  8
0
370
    35
390
0
 62
     5
 48
0.0142
100
AcDbLine
 10
1314.942871
 20
527.639954
 30
0.0
 11
1314.374878
 21
527.639954
 31
0.0
210
0.0
220
0.0
230
1.0
  0
LINE
  5
3F3
100
AcDbEntity
  8
0
370
    35
390
0
 62
     5
 48
0.038187
100
AcDbLine
 10
1314.374878
 20
527.639954
 30
0.0
 11
1314.375854
 21
526.112488
 31
0.0
210
0.0
220
0.0
230
1.0
  0
ARC
  5
3F4
100
AcDbEntity
  8
0
370
    35
390
0
 62
     5
100
AcDbCircle
 10
1349.652222
 20
526.13385
 30
0.0
 40
35.276382
210
0.0
220
0.0
230
1.0
100
AcDbArc
 50
180.034692
 51
181.087785
  0
ARC
  5
3F5
100
AcDbEntity
  8
0
370
    35
390
0
 62
     5
100
AcDbCircle
 10
1358.37854
 20
526.299561
 30
0.0
 40
44.004337
210
0.0
220
0.0
230
1.0
100
AcDbArc
 50
181.087839
 51
181.980053
  0
ARC
  5
3F6
100
AcDbEntity
  8
0
370
    35
390
0
 62
     5
100
AcDbCircle
 10
1354.133911
 20
526.152832
 30
0.0
 40
39.75721
210
0.0
220
0.0
230
1.0
100
AcDbArc
 50
181.98008
 51
182.880067
  0
ARC
  5
3F7
100
AcDbEntity
  8
0
370
    35
390
0
 62
     5
100
AcDbCircle
 10
1324.386353
 20
524.65625
 30
0.0
 40
9.971949
210
0.0
220
0.0
230
1.0
100
AcDbArc
 50
182.880067
 51
185.39594
  0
LINE
  5
3F8
100
AcDbEntity
  8
0
370
    35
390
0
 62
     5
 48
0.021758
100
AcDbLine
 10
1314.458618
 20
523.718567
 30
0.0
 11
1314.540405
 21
522.852112
 31
0.0
210
0.0
220
0.0
230
1.0
  0
LINE
  5
3F9
100
AcDbEntity
  8
0
370
    35
390
0
 62
     5
 48
0.0102
100
AcDbLine
 10
1314.540405
 20
522.852112
 30
0.0
 11
1314.94519
 21
522.903259
 31
0.0
210
0.0
220
0.0
230
1.0
  0
ARC
  5
3FA
100
AcDbEntity
  8
0
370
    35
390
0
 62
     5
100
AcDbCircle
 10
1315.37085
 20
519.534729
 30
0.0
 40
3.395303
210
0.0
220
0.0
230
1.0
100
AcDbArc
 50
92.531038
 51
97.203209
  0
ARC
  5
3FB
100
AcDbEntity
  8
0
370
    35
390
0
 62
     5
100
AcDbCircle
 10
1323.835693
 20
328.042114
 30
0.0
 40
195.074905
210
0.0
220
0.0
230
1.0
100
AcDbArc
 50
92.275541
 51
92.531079
  0
ARC
  5
3FC
100
AcDbEntity
  8
0
370
    35
390
0
 62
     5
100
AcDbCircle
 10
1322.028076
 20
373.537903
 30
0.0
 40
149.543259
210
0.0
220
0.0
230
1.0
100
AcDbArc
 50
91.878892
 51
92.275603
  0
ARC
  5
3FD
100
AcDbEntity
  8
0
370
    35
390
0
 62
     5
100
AcDbCircle
 10
1324.591187
 20
295.402161
 30
0.0
 40
227.721024
210
0.0
220
0.0
230
1.0
100
AcDbArc
 50
91.589435
 51
91.878892
  0
LINE
  5
3FE
100
AcDbEntity
  8
0
370
    35
390
0
 62
     5
 48
0.073151
100
AcDbLine
 10
1318.274902
 20
523.035583
 30
0.0
 11
1321.199829
 21
523.116699
 31
0.0
210
0.0
220
0.0
230
1.0
  0
LINE
  5
3FF
100
AcDbEntity
  8
0
370
    35
390
0
 62
     5
 48
0.041113
100
AcDbLine
 10
1321.199829
 20
523.116699
 30
0.0
 11
1321.166016
 21
524.760864
 31
0.0
210
0.0
220
0.0
230
1.0
  0
ARC
  5
400
100
AcDbEntity
  8
0
370
    35
390
0
 62
     5
100
AcDbCircle
 10
1254.29126
 20
523.38324
 30
0.0
 40
66.888901
210
0.0
220
0.0
230
1.0
100
AcDbArc
 50
1.180143
 51
2.324903
  0
ARC
  5
401
100
AcDbEntity
  8
0
370
    35
390
0
 62
     5
100
AcDbCircle
 10
1296.477661
 20
525.095947
 30
0.0
 40
24.667784
210
0.0
220
0.0
230
1.0
100
AcDbArc
 50
2.324921
 51
4.735151
  0
ARC
  5
402
100
AcDbEntity
  8
0
370
    35
390
0
 62
     5
100
AcDbCircle
 10
1281.304443
 20
523.839111
 30
0.0
 40
39.893021
210
0.0
220
0.0
230
1.0
100
AcDbArc
 50
4.735171
 51
5.909266
  0
ARC
  5
403
100
AcDbEntity
  8
0
370
    35
390
0
 62
     5
100
AcDbCircle
 10
1320.914429
 20
527.938843
 30
0.0
 40
0.071407
210
0.0
220
0.0
230
1.0
100
AcDbArc
 50
5.909314
 51
104.076585
  0
ARC
  5
404
100
AcDbEntity
  8
0
370
    35
390
0
 62
     5
100
AcDbCircle
 10
1320.769287
 20
528.517395
 30
0.0
 40
0.525037
210
0.0
220
0.0
230
1.0
100
AcDbArc
 50
277.758252
 51
284.076587
  0
ARC
  5
405
100
AcDbEntity
  8
0
370
    35
390
0
 62
     5
100
AcDbCircle
 10
1318.677246
 20
543.873596
 30
0.0
 40
16.023073
210
0.0
220
0.0
230
1.0
100
AcDbArc
 50
277.224726
 51
277.758252
  0
ARC
  5
406
100
AcDbEntity
  8
0
370
    35
390
0
 62
     5
100
AcDbCircle
 10
1318.877686
 20
542.292236
 30
0.0
 40
14.429096
210
0.0
220
0.0
230
1.0
100
AcDbArc
 50
276.517446
 51
277.224698
  0
ARC
  5
407
100
AcDbEntity
  8
0
370
    35
390
0
 62
     5
100
AcDbCircle
 10
1318.20166
 20
548.20874
 30
0.0
 40
20.384087
210
0.0
220
0.0
230
1.0
100
AcDbArc
 50
275.971584
 51
276.517473
  0
ARC
  5
408
100
AcDbEntity
  8
0
370
    35
390
0
 62
     5
100
AcDbCircle
 10
1319.18042
 20
518.964844
 30
0.0
 40
5.699035
210
0.0
220
0.0
230
1.0
100
AcDbArc
 50
149.147125
 51
161.101008
  0
ARC
  5
409
100
AcDbEntity
  8
0
370
    35
390
0
 62
     5
100
AcDbCircle
 10
1319.303345
 20
518.922729
 30
0.0
 40
5.828976
210
0.0
220
0.0
230
1.0
100
AcDbArc
 50
161.100995
 51
172.854425
  0
ARC
  5
40A
100
AcDbEntity
  8
0
370
    35
390
0
 62
     5
100
AcDbCircle
 10
1318.437988
 20
519.03125
 30
0.0
 40
4.956741
210
0.0
220
0.0
230
1.0
100
AcDbArc
 50
172.85448
 51
185.520659
  0
ARC
  5
40B
100
AcDbEntity
  8
0
370
    35
390
0
 62
     5
100
AcDbCircle
 10
1315.848999
 20
518.781006
 30
0.0
 40
2.355773
210
0.0
220
0.0
230
1.0
100
AcDbArc
 50
185.520714
 51
207.613111
  0
ARC
  5
40C
100
AcDbEntity
  8
0
370
    35
390
0
 62
     5
100
AcDbCircle
 10
1316.546875
 20
519.146057
 30
0.0
 40
3.143361
210
0.0
220
0.0
230
1.0
100
AcDbArc
 50
207.613179
 51
230.709669
  0
ARC
  5
40D
100
AcDbEntity
  8
0
370
    35
390
0
 62
     5
100
AcDbCircle
 10
1317.055054
 20
519.76709
 30
0.0
 40
3.945803
210
0.0
220
0.0
230
1.0
100
AcDbArc
 50
230.709669
 51
250.186992
  0
ARC
  5
40E
100
AcDbEntity
  8
0
370
    35
390
0
 62
     5
100
AcDbCircle
 10
1317.045776
 20
519.741333
 30
0.0
 40
3.918416
210
0.0
220
0.0
230
1.0
100
AcDbArc
 50
250.18693
 51
269.736817
  0
ARC
  5
40F
100
AcDbEntity
  8
0
370
    35
390
0
 62
     5
100
AcDbCircle
 10
1317.04187
 20
518.881348
 30
0.0
 40
3.058442
210
0.0
220
0.0
230
1.0
100
AcDbArc
 50
269.736844
 51
293.27677
  0
ARC
  5
410
100
AcDbEntity
  8
0
370
    35
390
0
 62
     5
100
AcDbCircle
 10
1316.952026
 20
519.089966
 30
0.0
 40
3.285554
210
0.0
220
0.0
230
1.0
100
AcDbArc
 50
293.276845
 51
308.995873
  0
ARC
  5
411
100
AcDbEntity
  8
0
370
    35
390
0
 62
     5
100
AcDbCircle
 10
1316.690674
 20
519.412842
 30
0.0
 40
3.700933
210
0.0
220
0.0
230
1.0
100
AcDbArc
 50
308.995873
 51
323.372438
  0
ARC
  5
412
100
AcDbEntity
  8
0
370
    35
390
0
 62
     5
100
AcDbCircle
 10
1316.066406
 20
519.876953
 30
0.0
 40
4.478834
210
0.0
220
0.0
230
1.0
100
AcDbArc
 50
323.372356
 51
336.321846
  0
ARC
  5
413
100
AcDbEntity
  8
0
370
    35
390
0
 62
     5
100
AcDbCircle
 10
1313.648071
 20
520.937378
 30
0.0
 40
7.119478
210
0.0
220
0.0
230
1.0
100
AcDbArc
 50
336.321875
 51
345.472635
  0
ARC
  5
414
100
AcDbEntity
  8
0
370
    35
390
0
 62
     5
100
AcDbCircle
 10
1302.896362
 20
523.72345
 30
0.0
 40
18.226274
210
0.0
220
0.0
230
1.0
100
AcDbArc
 50
345.47269
 51
348.021306
  0
ARC
  5
415
100
AcDbEntity
  8
0
370
    35
390
0
 62
     5
100
AcDbCircle
 10
1320.077148
 20
520.078247
 30
0.0
 40
0.663102
210
0.0
220
0.0
230
1.0
100
AcDbArc
 50
348.021252
 51
16.094502
  0
ARC
  5
416
100
AcDbEntity
  8
0
370
    35
390
0
 62
     5
100
AcDbCircle
 10
1320.400635
 20
520.171631
 30
0.0
 40
0.326341
210
0.0
220
0.0
230
1.0
100
AcDbArc
 50
16.094487
 51
62.907442
  0
ARC
  5
417
100
AcDbEntity
  8
0
370
    35
390
0
 62
     5
100
AcDbCircle
 10
1319.221191
 20
517.865967
 30
0.0
 40
2.916157
210
0.0
220
0.0
230
1.0
100
AcDbArc
 50
62.907401
 51
72.266393
  0
LINE
  5
418
100
AcDbEntity
  8
0
370
    35
390
0
 62
     5
 48
0.016677
100
AcDbLine
 10
1320.109375
 20
520.643555
 30
0.0
 11
1319.473999
 21
520.846802
 31
0.0
210
0.0
220
0.0
230
1.0
  0
LINE
  5
419
100
AcDbEntity
  8
0
370
    35
390
0
 62
     5
 48
0.016525
100
AcDbLine
 10
1319.473999
 20
520.846802
 30
0.0
 11
1319.387085
 21
520.191528
 31
0.0
210
0.0
220
0.0
230
1.0
  0
ARC
  5
41A
100
AcDbEntity
  8
0
370
    35
390
0
 62
     5
100
AcDbCircle
 10
1314.303345
 20
520.865967
 30
0.0
 40
5.128277
210
0.0
220
0.0
230
1.0
100
AcDbArc
 50
343.155068
 51
352.443607
  0
ARC
  5
41B
100
AcDbEntity
  8
0
370
    35
390
0
 62
     5
100
AcDbCircle
 10
1316.261475
 20
520.273071
 30
0.0
 40
3.082347
210
0.0
220
0.0
230
1.0
100
AcDbArc
 50
329.555098
 51
343.155097
  0
ARC
  5
41C
100
AcDbEntity
  8
0
370
    35
390
0
 62
     5
100
AcDbCircle
 10
1316.770752
 20
519.973694
 30
0.0
 40
2.491575
210
0.0
220
0.0
230
1.0
100
AcDbArc
 50
314.259217
 51
329.555067
  0
ARC
  5
41D
100
AcDbEntity
  8
0
370
    35
390
0
 62
     5
100
AcDbCircle
 10
1316.97168
 20
519.767517
 30
0.0
 40
2.203661
210
0.0
220
0.0
230
1.0
100
AcDbArc
 50
297.487985
 51
314.259162
  0
ARC
  5
41E
100
AcDbEntity
  8
0
370
    35
390
0
 62
     5
100
AcDbCircle
 10
1317.276978
 20
519.180847
 30
0.0
 40
1.542305
210
0.0
220
0.0
230
1.0
100
AcDbArc
 50
264.959919
 51
297.48793
  0
ARC
  5
41F
100
AcDbEntity
  8
0
370
    35
390
0
 62
     5
100
AcDbCircle
 10
1317.376343
 20
520.307434
 30
0.0
 40
2.673314
210
0.0
220
0.0
230
1.0
100
AcDbArc
 50
243.407756
 51
264.959864
  0
ARC
  5
420
100
AcDbEntity
  8
0
370
    35
390
0
 62
     5
100
AcDbCircle
 10
1317.417114
 20
520.388794
 30
0.0
 40
2.764291
210
0.0
220
0.0
230
1.0
100
AcDbArc
 50
222.239825
 51
243.407756
  0
ARC
  5
421
100
AcDbEntity
  8
0
370
    35
390
0
 62
     5
100
AcDbCircle
 10
1316.663696
 20
519.704712
 30
0.0
 40
1.746626
210
0.0
220
0.0
230
1.0
100
AcDbArc
 50
192.38754
 51
222.239852
  0
ARC
  5
422
100
AcDbEntity
  8
0
370
    35
390
0
 62
     5
100
AcDbCircle
 10
1316.368042
 20
519.639771
 30
0.0
 40
1.443934
210
0.0
220
0.0
230
1.0
100
AcDbArc
 50
173.514003
 51
192.38754
  0
ARC
  5
423
100
AcDbEntity
  8
0
370
    35
390
0
 62
     5
100
AcDbCircle
 10
1317.705322
 20
519.487732
 30
0.0
 40
2.789908
210
0.0
220
0.0
230
1.0
100
AcDbArc
 50
161.984548
 51
173.513948
  0
ARC
  5
424
100
AcDbEntity
  8
0
370
    35
390
0
 62
     5
100
AcDbCircle
 10
1318.055176
 20
519.373962
 30
0.0
 40
3.157809
210
0.0
220
0.0
230
1.0
100
AcDbArc
 50
151.085752
 51
161.984589
  0
ARC
  5
425
100
AcDbEntity
  8
0
370
    35
390
0
 62
     5
100
AcDbCircle
 10
1317.820679
 20
519.503479
 30
0.0
 40
2.889906
210
0.0
220
0.0
230
1.0
100
AcDbArc
 50
139.437738
 51
151.085779
  0
ARC
  5
426
100
AcDbEntity
  8
0
370
    35
390
0
 62
     5
100
AcDbCircle
 10
1308.04834
 20
527.868225
 30
0.0
 40
9.973502
210
0.0
220
0.0
230
1.0
100
AcDbArc
 50
319.437784
 51
320.949442
  0
ARC
  5
427
100
AcDbEntity
  8
0
370
    35
390
0
 62
     5
100
AcDbCircle
 10
1311.180542
 20
525.327209
 30
0.0
 40
5.940231
210
0.0
220
0.0
230
1.0
100
AcDbArc
 50
320.949442
 51
323.177941
  0
ARC
  5
428
100
AcDbEntity
  8
0
370
    35
390
0
 62
     5
100
AcDbCircle
 10
1308.885986
 20
527.045166
 30
0.0
 40
8.806637
210
0.0
220
0.0
230
1.0
100
AcDbArc
 50
323.178051
 51
324.435106
  0
ARC
  5
429
100
AcDbEntity
  8
0
370
    35
390
0
 62
     5
100
AcDbCircle
 10
1315.984253
 20
521.96991
 30
0.0
 40
0.080661
210
0.0
220
0.0
230
1.0
100
AcDbArc
 50
324.435024
 51
359.999955
  0
ARC
  5
42A
100
AcDbEntity
  8
0
370
    35
390
0
 62
     5
100
AcDbCircle
 10
1315.976929
 20
521.96991
 30
0.0
 40
0.08796
210
0.0
220
0.0
230
1.0
100
AcDbArc
 50
0.000056
 51
63.635985
  0
ARC
  5
42B
100
AcDbEntity
  8
0
370
    35
390
0
 62
     5
100
AcDbCircle
 10
1300.443237
 20
490.628113
 30
0.0
 40
35.067982
210
0.0
220
0.0
230
1.0
100
AcDbArc
 50
63.636039
 51
64.577519
  0
ARC
  5
42C
100
AcDbEntity
  8
0
370
    35
390
0
 62
     5
100
AcDbCircle
 10
1307.660278
 20
505.811707
 30
0.0
 40
18.25647
210
0.0
220
0.0
230
1.0
100
AcDbArc
 50
64.577594
 51
66.30583
  0
ARC
  5
42D
100
AcDbEntity
  8
0
370
    35
390
0
 62
     5
100
AcDbCircle
 10
1314.802368
 20
522.086304
 30
0.0
 40
0.48369
210
0.0
220
0.0
230
1.0
100
AcDbArc
 50
66.305892
 51
90.000003
  0
ARC
  5
42E
100
AcDbEntity
  8
0
370
    35
390
0
 62
     5
100
AcDbCircle
 10
1314.802368
 20
522.493652
 30
0.0
 40
0.076313
210
0.0
220
0.0
230
1.0
100
AcDbArc
 50
89.999996
 51
140.458168
  0
ARC
  5
42F
100
AcDbEntity
  8
0
370
    35
390
0
 62
     5
100
AcDbCircle
 10
1318.582275
 20
519.373108
 30
0.0
 40
4.977953
210
0.0
220
0.0
230
1.0
100
AcDbArc
 50
140.458182
 51
142.99124
  0
ARC
  5
430
100
AcDbEntity
  8
0
370
    35
390
0
 62
     5
100
AcDbCircle
 10
1317.953247
 20
519.84729
 30
0.0
 40
4.190195
210
0.0
220
0.0
230
1.0
100
AcDbArc
 50
142.99124
 51
146.679842
  0
ARC
  5
431
100
AcDbEntity
  8
0
370
    35
390
0
 62
     5
100
AcDbCircle
 10
1320.442139
 20
518.211121
 30
0.0
 40
7.168694
210
0.0
220
0.0
230
1.0
100
AcDbArc
 50
146.679897
 51
149.147194
  0
ARC
  5
432
100
AcDbEntity
  8
0
370
    35
390
0
 62
     5
100
AcDbCircle
 10
1299.715088
 20
481.667725
 30
0.0
 40
40.947033
210
0.0
220
0.0
230
1.0
100
AcDbArc
 50
109.963396
 51
110.624811
  0
ARC
  5
433
100
AcDbEntity
  8
0
370
    35
390
0
 62
     5
100
AcDbCircle
 10
1293.590332
 20
497.940796
 30
0.0
 40
23.559546
210
0.0
220
0.0
230
1.0
100
AcDbArc
 50
110.624824
 51
111.625426
  0
ARC
  5
434
100
AcDbEntity
  8
0
370
    35
390
0
 62
     5
100
AcDbCircle
 10
1303.328857
 20
473.376099
 30
0.0
 40
49.984169
210
0.0
220
0.0
230
1.0
100
AcDbArc
 50
111.625426
 51
112.029015
  0
ARC
  5
435
100
AcDbEntity
  8
0
370
    35
390
0
 62
     5
100
AcDbCircle
 10
1284.641846
 20
519.560486
 30
0.0
 40
0.162521
210
0.0
220
0.0
230
1.0
100
AcDbArc
 50
112.028975
 51
135.0
  0
ARC
  5
436
100
AcDbEntity
  8
0
370
    35
390
0
 62
     5
100
AcDbCircle
 10
1284.613525
 20
519.588928
 30
0.0
 40
0.122326
210
0.0
220
0.0
230
1.0
100
AcDbArc
 50
135.000055
 51
199.854194
  0
ARC
  5
437
100
AcDbEntity
  8
0
370
    35
390
0
 62
     5
100
AcDbCircle
 10
1295.085205
 20
523.370178
 30
0.0
 40
11.255879
210
0.0
220
0.0
230
1.0
100
AcDbArc
 50
199.854207
 51
202.435158
  0
ARC
  5
438
100
AcDbEntity
  8
0
370
    35
390
0
 62
     5
100
AcDbCircle
 10
1295.092041
 20
523.372986
 30
0.0
 40
11.263204
210
0.0
220
0.0
230
1.0
100
AcDbArc
 50
202.435199
 51
205.014538
  0
ARC
  5
439
100
AcDbEntity
  8
0
370
    35
390
0
 62
     5
100
AcDbCircle
 10
1284.995728
 20
518.661926
 30
0.0
 40
0.121923
210
0.0
220
0.0
230
1.0
100
AcDbArc
 50
205.014497
 51
270.000052
  0
ARC
  5
43A
100
AcDbEntity
  8
0
370
    35
390
0
 62
     5
100
AcDbCircle
 10
1284.995728
 20
519.530518
 30
0.0
 40
0.990518
210
0.0
220
0.0
230
1.0
100
AcDbArc
 50
269.999997
 51
290.88953
  0
ARC
  5
43B
100
AcDbEntity
  8
0
370
    35
390
0
 62
     5
100
AcDbCircle
 10
1271.77124
 20
554.18103
 30
0.0
 40
38.078896
210
0.0
220
0.0
230
1.0
100
AcDbArc
 50
290.88953
 51
292.394091
  0
ARC
  5
43C
100
AcDbEntity
  8
0
370
    35
390
0
 62
     5
100
AcDbCircle
 10
1253.313843
 20
598.975098
 30
0.0
 40
86.526627
210
0.0
220
0.0
230
1.0
100
AcDbArc
 50
292.394111
 51
293.094042
  0
ARC
  5
43D
100
AcDbEntity
  8
0
370
    35
390
0
 62
     5
100
AcDbCircle
 10
1287.206543
 20
519.491943
 30
0.0
 40
0.118974
210
0.0
220
0.0
230
1.0
100
AcDbArc
 50
293.094042
 51
3.800291
  0
ARC
  5
43E
100
AcDbEntity
  8
0
370
    35
390
0
 62
     5
100
AcDbCircle
 10
1286.98999
 20
519.477539
 30
0.0
 40
0.336037
210
0.0
220
0.0
230
1.0
100
AcDbArc
 50
3.800238
 51
18.210814
  0
ARC
  5
43F
100
AcDbEntity
  8
0
370
    35
390
0
 62
     5
100
AcDbCircle
 10
1283.424438
 20
518.304504
 30
0.0
 40
4.089602
210
0.0
220
0.0
230
1.0
100
AcDbArc
 50
18.210854
 51
20.522548
  0
ARC
  5
440
100
AcDbEntity
  8
0
370
    35
390
0
 62
     5
100
AcDbCircle
 10
1283.098999
 20
518.182678
 30
0.0
 40
4.437085
210
0.0
220
0.0
230
1.0
100
AcDbArc
 50
20.522529
 51
23.048023
  0
ARC
  5
441
100
AcDbEntity
  8
0
370
    35
390
0
 62
     5
100
AcDbCircle
 10
1282.182129
 20
517.792603
 30
0.0
 40
5.433448
210
0.0
220
0.0
230
1.0
100
AcDbArc
 50
23.048057
 51
25.217668
  0
LINE
  5
442
100
AcDbEntity
  8
0
370
    35
390
0
 62
     5
 48
0.012783
100
AcDbLine
 10
1287.097778
 20
520.107605
 30
0.0
 11
1286.879883
 21
520.57019
 31
0.0
210
0.0
220
0.0
230
1.0
  0
LINE
  5
443
100
AcDbEntity
  8
0
370
    35
390
0
 62
     5
 48
0.030455
100
AcDbLine
 10
1286.879883
 20
520.57019
 30
0.0
 11
1285.734863
 21
520.154297
 31
0.0
210
0.0
220
0.0
230
1.0
  0
ARC
  5
444
100
AcDbEntity
  8
0
370
    35
390
0
 62
     5
100
AcDbCircle
 10
1330.557251
 20
462.84967
 30
0.0
 40
70.024689
210
0.0
220
0.0
230
1.0
100
AcDbArc
 50
129.674242
 51
131.233588
  0
ARC
  5
445
100
AcDbEntity
  8
0
370
    35
390
0
 62
     5
100
AcDbCircle
 10
1287.613159
 20
511.846375
 30
0.0
 40
4.871986
210
0.0
220
0.0
230
1.0
100
AcDbArc
 50
131.233574
 51
142.163271
  0
ARC
  5
446
100
AcDbEntity
  8
0
370
    35
390
0
 62
     5
100
AcDbCircle
 10
1285.124878
 20
513.779053
 30
0.0
 40
1.721299
210
0.0
220
0.0
230
1.0
100
AcDbArc
 50
142.163284
 51
163.807389
  0
ARC
  5
447
100
AcDbEntity
  8
0
370
    35
390
0
 62
     5
100
AcDbCircle
 10
1285.858521
 20
513.565979
 30
0.0
 40
2.485275
210
0.0
220
0.0
230
1.0
100
AcDbArc
 50
163.807334
 51
180.243614
  0
ARC
  5
448
100
AcDbEntity
  8
0
370
    35
390
0
 62
     5
100
AcDbCircle
 10
1288.794067
 20
513.57843
 30
0.0
 40
5.420796
210
0.0
220
0.0
230
1.0
100
AcDbArc
 50
180.243573
 51
184.831671
  0
ARC
  5
449
100
AcDbEntity
  8
0
370
    35
390
0
 62
     5
100
AcDbCircle
 10
1285.350586
 20
513.287415
 30
0.0
 40
1.96508
210
0.0
220
0.0
230
1.0
100
AcDbArc
 50
184.831671
 51
194.614824
  0
ARC
  5
44A
100
AcDbEntity
  8
0
370
    35
390
0
 62
     5
100
AcDbCircle
 10
1285.186157
 20
513.244507
 30
0.0
 40
1.795127
210
0.0
220
0.0
230
1.0
100
AcDbArc
 50
194.614797
 51
204.952643
  0
ARC
  5
44B
100
AcDbEntity
  8
0
370
    35
390
0
 62
     5
100
AcDbCircle
 10
1287.138672
 20
514.153015
 30
0.0
 40
3.948628
210
0.0
220
0.0
230
1.0
100
AcDbArc
 50
204.952698
 51
210.686805
  0
ARC
  5
44C
100
AcDbEntity
  8
0
370
    35
390
0
 62
     5
100
AcDbCircle
 10
1287.639282
 20
514.450134
 30
0.0
 40
4.530792
210
0.0
220
0.0
230
1.0
100
AcDbArc
 50
210.686874
 51
224.164927
  0
ARC
  5
44D
100
AcDbEntity
  8
0
370
    35
390
0
 62
     5
100
AcDbCircle
 10
1287.228027
 20
514.05072
 30
0.0
 40
3.957534
210
0.0
220
0.0
230
1.0
100
AcDbArc
 50
224.164982
 51
239.082033
  0
ARC
  5
44E
100
AcDbEntity
  8
0
370
    35
390
0
 62
     5
100
AcDbCircle
 10
1286.82959
 20
513.385437
 30
0.0
 40
3.182092
210
0.0
220
0.0
230
1.0
100
AcDbArc
 50
239.082006
 51
255.757878
  0
ARC
  5
44F
100
AcDbEntity
  8
0
370
    35
390
0
 62
     5
100
AcDbCircle
 10
1286.465576
 20
511.951233
 30
0.0
 40
1.70241
210
0.0
220
0.0
230
1.0
100
AcDbArc
 50
255.757824
 51
282.387591
  0
ARC
  5
450
100
AcDbEntity
  8
0
370
    35
390
0
 62
     5
100
AcDbCircle
 10
1286.384521
 20
512.320496
 30
0.0
 40
2.080452
210
0.0
220
0.0
230
1.0
100
AcDbArc
 50
282.387591
 51
295.601158
  0
ARC
  5
451
100
AcDbEntity
  8
0
370
    35
390
0
 62
     5
100
AcDbCircle
 10
1285.450684
 20
514.26947
 30
0.0
 40
4.241589
210
0.0
220
0.0
230
1.0
100
AcDbArc
 50
295.601213
 51
303.356323
  0
ARC
  5
452
100
AcDbEntity
  8
0
370
    35
390
0
 62
     5
100
AcDbCircle
 10
1282.635742
 20
518.545654
 30
0.0
 40
9.361146
210
0.0
220
0.0
230
1.0
100
AcDbArc
 50
303.356381
 51
308.270917
  0
ARC
  5
453
100
AcDbEntity
  8
0
370
    35
390
0
 62
     5
100
AcDbCircle
 10
1255.230225
 20
553.283325
 30
0.0
 40
53.607826
210
0.0
220
0.0
230
1.0
100
AcDbArc
 50
308.270862
 51
309.62187
  0
LINE
  5
454
100
AcDbEntity
  8
0
370
    35
390
0
 62
     5
 48
0.016226
100
AcDbLine
 10
1289.41687
 20
511.990845
 30
0.0
 11
1289.917358
 21
512.404053
 31
0.0
210
0.0
220
0.0
230
1.0
  0
LINE
  5
455
100
AcDbEntity
  8
0
370
    35
390
0
 62
     5
 48
0.015554
100
AcDbLine
 10
1289.917358
 20
512.404053
 30
0.0
 11
1290.398315
 21
512.798706
 31
0.0
210
0.0
220
0.0
230
1.0
  0
LINE
  5
456
100
AcDbEntity
  8
0
370
    35
390
0
 62
     5
 48
0.013215
100
AcDbLine
 10
1290.398315
 20
512.798706
 30
0.0
 11
1290.807983
 21
513.132751
 31
0.0
210
0.0
220
0.0
230
1.0
  0
ARC
  5
457
100
AcDbEntity
  8
0
370
    35
390
0
 62
     5
100
AcDbCircle
 10
1300.516846
 20
501.191772
 30
0.0
 40
15.389918
210
0.0
220
0.0
230
1.0
100
AcDbArc
 50
128.098613
 51
129.113429
  0
LINE
  5
458
100
AcDbEntity
  8
0
370
    35
390
0
 62
     5
 48
0.011664
100
AcDbLine
 10
1291.020996
 20
513.302856
 30
0.0
 11
1291.388184
 21
513.590698
 31
0.0
210
0.0
220
0.0
230
1.0
  0
LINE
  5
459
100
AcDbEntity
  8
0
370
    35
390
0
 62
     5
 48
0.021408
100
AcDbLine
 10
1291.388184
 20
513.590698
 30
0.0
 11
1290.836182
 21
514.245361
 31
0.0
210
0.0
220
0.0
230
1.0
  0
ARC
  5
45A
100
AcDbEntity
  8
0
370
    35
390
0
 62
     5
100
AcDbCircle
 10
1282.519897
 20
507.232971
 30
0.0
 40
10.878121
210
0.0
220
0.0
230
1.0
100
AcDbArc
 50
40.137969
 51
41.889123
  0
ARC
  5
45B
100
AcDbEntity
  8
0
370
    35
390
0
 62
     5
100
AcDbCircle
 10
1285.909546
 20
510.273193
 30
0.0
 40
6.32477
210
0.0
220
0.0
230
1.0
100
AcDbArc
 50
41.889096
 51
44.517483
  0
ARC
  5
45C
100
AcDbEntity
  8
0
370
    35
390
0
 62
     5
100
AcDbCircle
 10
1283.806274
 20
508.205017
 30
0.0
 40
9.274596
210
0.0
220
0.0
230
1.0
100
AcDbArc
 50
44.517455
 51
46.008731
  0
ARC
  5
45D
100
AcDbEntity
  8
0
370
    35
390
0
 62
     5
100
AcDbCircle
 10
1290.192505
 20
514.820129
 30
0.0
 40
0.079827
210
0.0
220
0.0
230
1.0
100
AcDbArc
 50
46.008745
 51
90.000064
  0
ARC
  5
45E
100
AcDbEntity
  8
0
370
    35
390
0
 62
     5
100
AcDbCircle
 10
1290.192505
 20
514.79541
 30
0.0
 40
0.104549
210
0.0
220
0.0
230
1.0
100
AcDbArc
 50
89.999968
 51
127.477735
  0
ARC
  5
45F
100
AcDbEntity
  8
0
370
    35
390
0
 62
     5
100
AcDbCircle
 10
1374.510864
 20
404.820801
 30
0.0
 40
138.683044
210
0.0
220
0.0
230
1.0
100
AcDbArc
 50
127.477653
 51
127.724947
  0
ARC
  5
460
100
AcDbEntity
  8
0
370
    35
390
0
 62
     5
100
AcDbCircle
 10
1315.091797
 20
481.630798
 30
0.0
 40
41.572884
210
0.0
220
0.0
230
1.0
100
AcDbArc
 50
127.724852
 51
128.672513
  0
ARC
  5
461
100
AcDbEntity
  8
0
370
    35
390
0
 62
     5
100
AcDbCircle
 10
1337.149658
 20
454.070862
 30
0.0
 40
76.872963
210
0.0
220
0.0
230
1.0
100
AcDbArc
 50
128.672431
 51
129.270592
  0
ARC
  5
462
100
AcDbEntity
  8
0
370
    35
390
0
 62
     5
100
AcDbCircle
 10
1255.513428
 20
553.915405
 30
0.0
 40
52.097637
210
0.0
220
0.0
230
1.0
100
AcDbArc
 50
307.283818
 51
309.270553
  0
ARC
  5
463
100
AcDbEntity
  8
0
370
    35
390
0
 62
     5
100
AcDbCircle
 10
1285.287231
 20
514.808838
 30
0.0
 40
2.946783
210
0.0
220
0.0
230
1.0
100
AcDbArc
 50
291.18249
 51
307.283791
  0
ARC
  5
464
100
AcDbEntity
  8
0
370
    35
390
0
 62
     5
100
AcDbCircle
 10
1286.057617
 20
512.820862
 30
0.0
 40
0.814754
210
0.0
220
0.0
230
1.0
100
AcDbArc
 50
253.236097
 51
291.182463
  0
ARC
  5
465
100
AcDbEntity
  8
0
370
    35
390
0
 62
     5
100
AcDbCircle
 10
1286.228149
 20
513.387207
 30
0.0
 40
1.406271
210
0.0
220
0.0
230
1.0
100
AcDbArc
 50
228.00852
 51
253.236118
  0
ARC
  5
466
100
AcDbEntity
  8
0
370
    35
390
0
 62
     5
100
AcDbCircle
 10
1285.890015
 20
513.011536
 30
0.0
 40
0.900805
210
0.0
220
0.0
230
1.0
100
AcDbArc
 50
215.42279
 51
228.008548
  0
ARC
  5
467
100
AcDbEntity
  8
0
370
    35
390
0
 62
     5
100
AcDbCircle
 10
1285.797119
 20
512.945435
 30
0.0
 40
0.786776
210
0.0
220
0.0
230
1.0
100
AcDbArc
 50
201.492551
 51
215.422777
  0
ARC
  5
468
100
AcDbEntity
  8
0
370
    35
390
0
 62
     5
100
AcDbCircle
 10
1285.907104
 20
512.988708
 30
0.0
 40
0.904921
210
0.0
220
0.0
230
1.0
100
AcDbArc
 50
188.618642
 51
201.49251
  0
ARC
  5
469
100
AcDbEntity
  8
0
370
    35
390
0
 62
     5
100
AcDbCircle
 10
1286.54126
 20
513.084839
 30
0.0
 40
1.546365
210
0.0
220
0.0
230
1.0
100
AcDbArc
 50
179.999964
 51
188.618697
  0
ARC
  5
46A
100
AcDbEntity
  8
0
370
    35
390
0
 62
     5
100
AcDbCircle
 10
1285.877319
 20
513.084839
 30
0.0
 40
0.882453
210
0.0
220
0.0
230
1.0
100
AcDbArc
 50
151.538702
 51
179.99995
  0
ARC
  5
46B
100
AcDbEntity
  8
0
370
    35
390
0
 62
     5
100
AcDbCircle
 10
1286.936523
 20
512.510681
 30
0.0
 40
2.087277
210
0.0
220
0.0
230
1.0
100
AcDbArc
 50
136.578211
 51
151.53862
  0
ARC
  5
46C
100
AcDbEntity
  8
0
370
    35
390
0
 62
     5
100
AcDbCircle
 10
1290.979736
 20
508.684326
 30
0.0
 40
7.653976
210
0.0
220
0.0
230
1.0
100
AcDbArc
 50
129.872413
 51
136.578238
  0
ARC
  5
46D
100
AcDbEntity
  8
0
370
    35
390
0
 62
     5
100
AcDbCircle
 10
1356.943604
 20
429.71521
 30
0.0
 40
110.548874
210
0.0
220
0.0
230
1.0
100
AcDbArc
 50
128.919042
 51
129.872441
  0
LINE
  5
46E
100
AcDbEntity
  8
0
370
    35
390
0
 62
     5
 48
0.040635
100
AcDbLine
 10
1287.494385
 20
515.726013
 30
0.0
 11
1288.759033
 21
516.74707
 31
0.0
210
0.0
220
0.0
230
1.0
  0
LINE
  5
46F
100
AcDbEntity
  8
0
370
    35
390
0
 62
     5
 48
0.022252
100
AcDbLine
 10
1288.759033
 20
516.74707
 30
0.0
 11
1288.211182
 21
517.448547
 31
0.0
210
0.0
220
0.0
230
1.0
  0
ARC
  5
470
100
AcDbEntity
  8
0
370
    35
390
0
 62
     5
100
AcDbCircle
 10
1276.721558
 20
508.475098
 30
0.0
 40
14.578486
210
0.0
220
0.0
230
1.0
100
AcDbArc
 50
37.990257
 51
39.341507
  0
ARC
  5
471
100
AcDbEntity
  8
0
370
    35
390
0
 62
     5
100
AcDbCircle
 10
1281.798462
 20
512.636536
 30
0.0
 40
8.014042
210
0.0
220
0.0
230
1.0
100
AcDbArc
 50
39.341562
 51
41.456403
  0
ARC
  5
472
100
AcDbEntity
  8
0
370
    35
390
0
 62
     5
100
AcDbCircle
 10
1276.021973
 20
507.533813
 30
0.0
 40
15.721469
210
0.0
220
0.0
230
1.0
100
AcDbArc
 50
41.456393
 51
42.366704
  0
ARC
  5
473
100
AcDbEntity
  8
0
370
    35
390
0
 62
     5
100
AcDbCircle
 10
1287.60083
 20
518.094482
 30
0.0
 40
0.04994
210
0.0
220
0.0
230
1.0
100
AcDbArc
 50
42.366649
 51
94.935046
  0
ARC
  5
474
100
AcDbEntity
  8
0
370
    35
390
0
 62
     5
100
AcDbCircle
 10
1287.604126
 20
518.05719
 30
0.0
 40
0.087372
210
0.0
220
0.0
230
1.0
100
AcDbArc
 50
94.93519
 51
128.584499
  0
LINE
  5
475
100
AcDbEntity
  8
0
370
    35
390
0
 62
     5
 48
0.015778
100
AcDbLine
 10
1287.549561
 20
518.125488
 30
0.0
 11
1287.056641
 21
517.731323
 31
0.0
210
0.0
220
0.0
230
1.0
  0
ARC
  5
476
100
AcDbEntity
  8
0
370
    35
390
0
 62
     5
100
AcDbCircle
 10
1329.615967
 20
464.601257
 30
0.0
 40
68.074303
210
0.0
220
0.0
230
1.0
100
AcDbArc
 50
128.696173
 51
129.298923
  0
ARC
  5
477
100
AcDbEntity
  8
0
370
    35
390
0
 62
     5
100
AcDbCircle
 10
1367.67041
 20
418.106018
 30
0.0
 40
128.157074
210
0.0
220
0.0
230
1.0
100
AcDbArc
 50
129.29891
 51
129.674311
  0
LINE
  5
478
100
AcDbEntity
  8
0
370
    35
390
0
 62
     5
 48
0.018274
100
AcDbLine
 10
1311.850464
 20
516.446899
 30
0.0
 11
1311.341187
 21
515.922546
 31
0.0
210
0.0
220
0.0
230
1.0
  0
LINE
  5
479
100
AcDbEntity
  8
0
370
    35
390
0
 62
     5
 48
0.057416
100
AcDbLine
 10
1311.341187
 20
515.922546
 30
0.0
 11
1312.955566
 21
514.289063
 31
0.0
210
0.0
220
0.0
230
1.0
  0
ARC
  5
47A
100
AcDbEntity
  8
0
370
    35
390
0
 62
     5
100
AcDbCircle
 10
1231.402832
 20
433.692871
 30
0.0
 40
114.658554
210
0.0
220
0.0
230
1.0
100
AcDbArc
 50
44.226554
 51
44.662003
  0
ARC
  5
47B
100
AcDbEntity
  8
0
370
    35
390
0
 62
     5
100
AcDbCircle
 10
1277.02771
 20
478.102356
 30
0.0
 40
50.98888
210
0.0
220
0.0
230
1.0
100
AcDbArc
 50
43.42847
 51
44.226482
  0
ARC
  5
47C
100
AcDbEntity
  8
0
370
    35
390
0
 62
     5
100
AcDbCircle
 10
1246.00415
 20
448.735718
 30
0.0
 40
93.707237
210
0.0
220
0.0
230
1.0
100
AcDbArc
 50
43.077088
 51
43.428426
  0
ARC
  5
47D
100
AcDbEntity
  8
0
370
    35
390
0
 62
     5
100
AcDbCircle
 10
1314.444214
 20
512.729492
 30
0.0
 40
0.009602
210
0.0
220
0.0
230
1.0
100
AcDbArc
 50
243.290058
 51
43.077306
  0
ARC
  5
47E
100
AcDbEntity
  8
0
370
    35
390
0
 62
     5
100
AcDbCircle
 10
1314.082764
 20
512.011169
 30
0.0
 40
0.794545
210
0.0
220
0.0
230
1.0
100
AcDbArc
 50
63.289878
 51
71.200658
  0
LINE
  5
47F
100
AcDbEntity
  8
0
370
    35
390
0
 62
     5
 48
0.01728
100
AcDbLine
 10
1314.338745
 20
512.763306
 30
0.0
 11
1313.684204
 21
512.985474
 31
0.0
210
0.0
220
0.0
230
1.0
  0
ARC
  5
480
100
AcDbEntity
  8
0
370
    35
390
0
 62
     5
100
AcDbCircle
 10
1263.887695
 20
365.848877
 30
0.0
 40
155.334763
210
0.0
220
0.0
230
1.0
100
AcDbArc
 50
71.30223
 51
71.597424
  0
LINE
  5
481
100
AcDbEntity
  8
0
370
    35
390
0
 62
     5
 48
0.023054
100
AcDbLine
 10
1312.925537
 20
513.240112
 30
0.0
 11
1312.050049
 21
513.529724
 31
0.0
210
0.0
220
0.0
230
1.0
  0
LINE
  5
482
100
AcDbEntity
  8
0
370
    35
390
0
 62
     5
 48
0.059473
100
AcDbLine
 10
1312.050049
 20
513.529724
 30
0.0
 11
1309.790283
 21
514.273132
 31
0.0
210
0.0
220
0.0
230
1.0
  0
LINE
  5
483
100
AcDbEntity
  8
0
370
    35
390
0
 62
     5
 48
0.029178
100
AcDbLine
 10
1309.790283
 20
514.273132
 30
0.0
 11
1308.961304
 21
513.451599
 31
0.0
210
0.0
220
0.0
230
1.0
  0
LINE
  5
484
100
AcDbEntity
  8
0
370
    35
390
0
 62
     5
 48
0.029176
100
AcDbLine
 10
1308.961304
 20
513.451599
 30
0.0
 11
1308.132446
 21
512.630005
 31
0.0
210
0.0
220
0.0
230
1.0
  0
LINE
  5
485
100
AcDbEntity
  8
0
370
    35
390
0
 62
     5
 48
0.08386
100
AcDbLine
 10
1308.132446
 20
512.630005
 30
0.0
 11
1310.503052
 21
510.256775
 31
0.0
210
0.0
220
0.0
230
1.0
  0
LINE
  5
486
100
AcDbEntity
  8
0
370
    35
390
0
 62
     5
 48
0.08386
100
AcDbLine
 10
1310.503052
 20
510.256775
 30
0.0
 11
1312.873657
 21
507.883545
 31
0.0
210
0.0
220
0.0
230
1.0
  0
LINE
  5
487
100
AcDbEntity
  8
0
370
    35
390
0
 62
     5
 48
0.019463
100
AcDbLine
 10
1312.873657
 20
507.883545
 30
0.0
 11
1313.429321
 21
508.428833
 31
0.0
210
0.0
220
0.0
230
1.0
  0
ARC
  5
488
100
AcDbEntity
  8
0
370
    35
390
0
 62
     5
100
AcDbCircle
 10
1306.707031
 20
515.27832
 30
0.0
 40
9.5971
210
0.0
220
0.0
230
1.0
100
AcDbArc
 50
314.462917
 51
316.272046
  0
ARC
  5
489
100
AcDbEntity
  8
0
370
    35
390
0
 62
     5
100
AcDbCircle
 10
1309.500854
 20
512.605896
 30
0.0
 40
5.730943
210
0.0
220
0.0
230
1.0
100
AcDbArc
 50
316.271992
 51
318.933826
  0
ARC
  5
48A
100
AcDbEntity
  8
0
370
    35
390
0
 62
     5
100
AcDbCircle
 10
1307.910034
 20
513.991943
 30
0.0
 40
7.840847
210
0.0
220
0.0
230
1.0
100
AcDbArc
 50
318.933771
 51
320.549493
  0
ARC
  5
48B
100
AcDbEntity
  8
0
370
    35
390
0
 62
     5
100
AcDbCircle
 10
1313.89563
 20
509.066467
 30
0.0
 40
0.089211
210
0.0
220
0.0
230
1.0
100
AcDbArc
 50
320.549493
 51
0.000041
  0
ARC
  5
48C
100
AcDbEntity
  8
0
370
    35
390
0
 62
     5
100
AcDbCircle
 10
1313.89563
 20
509.066467
 30
0.0
 40
0.089299
210
0.0
220
0.0
230
1.0
100
AcDbArc
 50
0.000008
 51
43.595889
  0
ARC
  5
48D
100
AcDbEntity
  8
0
370
    35
390
0
 62
     5
100
AcDbCircle
 10
1226.060547
 20
425.434082
 30
0.0
 40
121.371536
210
0.0
220
0.0
230
1.0
100
AcDbArc
 50
43.595957
 51
43.879
  0
ARC
  5
48E
100
AcDbEntity
  8
0
370
    35
390
0
 62
     5
100
AcDbCircle
 10
1287.111206
 20
484.141418
 30
0.0
 40
36.673618
210
0.0
220
0.0
230
1.0
100
AcDbArc
 50
43.878986
 51
44.956599
  0
ARC
  5
48F
100
AcDbEntity
  8
0
370
    35
390
0
 62
     5
100
AcDbCircle
 10
1264.773804
 20
461.83783
 30
0.0
 40
68.239616
210
0.0
220
0.0
230
1.0
100
AcDbArc
 50
44.956582
 51
45.633587
  0
ARC
  5
490
100
AcDbEntity
  8
0
370
    35
390
0
 62
     5
100
AcDbCircle
 10
1355.460449
 20
554.552551
 30
0.0
 40
61.452698
210
0.0
220
0.0
230
1.0
100
AcDbArc
 50
224.885949
 51
225.633541
  0
ARC
  5
491
100
AcDbEntity
  8
0
370
    35
390
0
 62
     5
100
AcDbCircle
 10
1333.901245
 20
533.078918
 30
0.0
 40
31.023836
210
0.0
220
0.0
230
1.0
100
AcDbArc
 50
223.639112
 51
224.885854
  0
ARC
  5
492
100
AcDbEntity
  8
0
370
    35
390
0
 62
     5
100
AcDbCircle
 10
1400.687988
 20
596.765869
 30
0.0
 40
123.30867
210
0.0
220
0.0
230
1.0
100
AcDbArc
 50
223.366778
 51
223.639043
  0
ARC
  5
493
100
AcDbEntity
  8
0
370
    35
390
0
 62
     5
100
AcDbCircle
 10
1311.067139
 20
512.114136
 30
0.0
 40
0.029327
210
0.0
220
0.0
230
1.0
100
AcDbArc
 50
134.999932
 51
223.36671
  0
ARC
  5
494
100
AcDbEntity
  8
0
370
    35
390
0
 62
     5
100
AcDbCircle
 10
1311.080933
 20
512.100403
 30
0.0
 40
0.048722
210
0.0
220
0.0
230
1.0
100
AcDbArc
 50
73.934831
 51
135.000041
  0
LINE
  5
495
100
AcDbEntity
  8
0
370
    35
390
0
 62
     5
 48
0.017322
100
AcDbLine
 10
1311.09436
 20
512.147217
 30
0.0
 11
1311.759888
 21
511.954468
 31
0.0
210
0.0
220
0.0
230
1.0
  0
ARC
  5
496
100
AcDbEntity
  8
0
370
    35
390
0
 62
     5
100
AcDbCircle
 10
1298.271973
 20
465.644592
 30
0.0
 40
48.234138
210
0.0
220
0.0
230
1.0
100
AcDbArc
 50
72.82446
 51
73.761583
  0
ARC
  5
497
100
AcDbEntity
  8
0
370
    35
390
0
 62
     5
100
AcDbCircle
 10
1285.086548
 20
422.984924
 30
0.0
 40
92.885025
210
0.0
220
0.0
230
1.0
100
AcDbArc
 50
72.250574
 51
72.824447
  0
LINE
  5
498
100
AcDbEntity
  8
0
370
    35
390
0
 62
     5
 48
0.060507
100
AcDbLine
 10
1313.402954
 20
511.448547
 30
0.0
 11
1315.708008
 21
510.710693
 31
0.0
210
0.0
220
0.0
230
1.0
  0
LINE
  5
499
100
AcDbEntity
  8
0
370
    35
390
0
 62
     5
 48
0.028093
100
AcDbLine
 10
1315.708008
 20
510.710693
 30
0.0
 11
1316.502563
 21
511.50531
 31
0.0
210
0.0
220
0.0
230
1.0
  0
LINE
  5
49A
100
AcDbEntity
  8
0
370
    35
390
0
 62
     5
 48
0.028095
100
AcDbLine
 10
1316.502563
 20
511.50531
 30
0.0
 11
1317.297241
 21
512.299927
 31
0.0
210
0.0
220
0.0
230
1.0
  0
LINE
  5
49B
100
AcDbEntity
  8
0
370
    35
390
0
 62
     5
 48
0.082684
100
AcDbLine
 10
1317.297241
 20
512.299927
 30
0.0
 11
1314.959961
 21
514.639954
 31
0.0
210
0.0
220
0.0
230
1.0
  0
ARC
  5
49C
100
AcDbEntity
  8
0
370
    35
390
0
 62
     5
100
AcDbCircle
 10
1231.965576
 20
431.741516
 30
0.0
 40
117.303947
210
0.0
220
0.0
230
1.0
100
AcDbArc
 50
44.966868
 51
45.589327
  0
ARC
  5
49D
100
AcDbEntity
  8
0
370
    35
390
0
 62
     5
100
AcDbCircle
 10
1270.274292
 20
470.846436
 30
0.0
 40
62.561344
210
0.0
220
0.0
230
1.0
100
AcDbArc
 50
45.589389
 51
46.585869
  0
ARC
  5
49E
100
AcDbEntity
  8
0
370
    35
390
0
 62
     5
100
AcDbCircle
 10
1155.830811
 20
349.88562
 30
0.0
 40
229.081085
210
0.0
220
0.0
230
1.0
100
AcDbArc
 50
46.585872
 51
46.823303
  0
ARC
  5
49F
100
AcDbEntity
  8
0
370
    35
390
0
 62
     5
100
AcDbCircle
 10
1312.495361
 20
516.852417
 30
0.0
 40
0.123239
210
0.0
220
0.0
230
1.0
100
AcDbArc
 50
46.823225
 51
91.904048
  0
ARC
  5
4A0
100
AcDbEntity
  8
0
370
    35
390
0
 62
     5
100
AcDbCircle
 10
1312.495728
 20
516.841309
 30
0.0
 40
0.134361
210
0.0
220
0.0
230
1.0
100
AcDbArc
 50
91.904082
 51
126.648878
  0
ARC
  5
4A1
100
AcDbEntity
  8
0
370
    35
390
0
 62
     5
100
AcDbCircle
 10
1314.929688
 20
513.569824
 30
0.0
 40
4.212007
210
0.0
220
0.0
230
1.0
100
AcDbArc
 50
126.648906
 51
129.529579
  0
ARC
  5
4A2
100
AcDbEntity
  8
0
370
    35
390
0
 62
     5
100
AcDbCircle
 10
1314.828003
 20
513.692993
 30
0.0
 40
4.052262
210
0.0
220
0.0
230
1.0
100
AcDbArc
 50
129.529606
 51
133.177665
  0
ARC
  5
4A3
100
AcDbEntity
  8
0
370
    35
390
0
 62
     5
100
AcDbCircle
 10
1316.296021
 20
512.128601
 30
0.0
 40
6.197562
210
0.0
220
0.0
230
1.0
100
AcDbArc
 50
133.177706
 51
135.83107
  0
LINE
  5
4A4
100
AcDbEntity
  8
0
370
    35
390
0
 62
     5
 48
0.031373
100
AcDbLine
 10
1290.170532
 20
510.576721
 30
0.0
 11
1289.603882
 21
509.457031
 31
0.0
210
0.0
220
0.0
230
1.0
  0
ARC
  5
4A5
100
AcDbEntity
  8
0
370
    35
390
0
 62
     5
100
AcDbCircle
 10
1446.495117
 20
430.450012
 30
0.0
 40
175.661484
210
0.0
220
0.0
230
1.0
100
AcDbArc
 50
153.271153
 51
153.624314
  0
LINE
  5
4A6
100
AcDbEntity
  8
0
370
    35
390
0
 62
     5
 48
0.023548
100
AcDbLine
 10
1289.119873
 20
508.488464
 30
0.0
 11
1288.702148
 21
507.644226
 31
0.0
210
0.0
220
0.0
230
1.0
  0
ARC
  5
4A7
100
AcDbEntity
  8
0
370
    35
390
0
 62
     5
100
AcDbCircle
 10
1289.248169
 20
507.374634
 30
0.0
 40
0.608974
210
0.0
220
0.0
230
1.0
100
AcDbArc
 50
153.725825
 51
165.359699
  0
ARC
  5
4A8
100
AcDbEntity
  8
0
370
    35
390
0
 62
     5
100
AcDbCircle
 10
1288.738403
 20
507.507813
 30
0.0
 40
0.082034
210
0.0
220
0.0
230
1.0
100
AcDbArc
 50
165.359631
 51
228.005761
  0
ARC
  5
4A9
100
AcDbEntity
  8
0
370
    35
390
0
 62
     5
100
AcDbCircle
 10
1290.310669
 20
509.254395
 30
0.0
 40
2.432048
210
0.0
220
0.0
230
1.0
100
AcDbArc
 50
228.005747
 51
233.417129
  0
ARC
  5
4AA
100
AcDbEntity
  8
0
370
    35
390
0
 62
     5
100
AcDbCircle
 10
1290.552734
 20
509.580444
 30
0.0
 40
2.838106
210
0.0
220
0.0
230
1.0
100
AcDbArc
 50
233.417101
 51
239.359858
  0
ARC
  5
4AB
100
AcDbEntity
  8
0
370
    35
390
0
 62
     5
100
AcDbCircle
 10
1291.684082
 20
511.490479
 30
0.0
 40
5.058051
210
0.0
220
0.0
230
1.0
100
AcDbArc
 50
239.359858
 51
243.215499
  0
LINE
  5
4AC
100
AcDbEntity
  8
0
370
    35
390
0
 62
     5
 48
0.022026
100
AcDbLine
 10
1289.404785
 20
506.975098
 30
0.0
 11
1290.191284
 21
506.578064
 31
0.0
210
0.0
220
0.0
230
1.0
  0
LINE
  5
4AD
100
AcDbEntity
  8
0
370
    35
390
0
 62
     5
 48
0.032759
100
AcDbLine
 10
1290.191284
 20
506.578064
 30
0.0
 11
1290.779419
 21
507.749023
 31
0.0
210
0.0
220
0.0
230
1.0
  0
ARC
  5
4AE
100
AcDbEntity
  8
0
370
    35
390
0
 62
     5
100
AcDbCircle
 10
1303.965088
 20
501.12677
 30
0.0
 40
14.755249
210
0.0
220
0.0
230
1.0
100
AcDbArc
 50
151.365366
 51
153.332856
  0
ARC
  5
4AF
100
AcDbEntity
  8
0
370
    35
390
0
 62
     5
100
AcDbCircle
 10
1298.233276
 20
504.256348
 30
0.0
 40
8.224685
210
0.0
220
0.0
230
1.0
100
AcDbArc
 50
148.317913
 51
151.365407
  0
ARC
  5
4B0
100
AcDbEntity
  8
0
370
    35
390
0
 62
     5
100
AcDbCircle
 10
1301.429077
 20
502.283936
 30
0.0
 40
11.980172
210
0.0
220
0.0
230
1.0
100
AcDbArc
 50
146.590995
 51
148.317858
  0
ARC
  5
4B1
100
AcDbEntity
  8
0
370
    35
390
0
 62
     5
100
AcDbCircle
 10
1291.502075
 20
508.831848
 30
0.0
 40
0.088141
210
0.0
220
0.0
230
1.0
100
AcDbArc
 50
89.999996
 51
146.591036
  0
ARC
  5
4B2
100
AcDbEntity
  8
0
370
    35
390
0
 62
     5
100
AcDbCircle
 10
1291.502075
 20
508.778137
 30
0.0
 40
0.141813
210
0.0
220
0.0
230
1.0
100
AcDbArc
 50
59.499035
 51
90.000023
  0
ARC
  5
4B3
100
AcDbEntity
  8
0
370
    35
390
0
 62
     5
100
AcDbCircle
 10
1290.734619
 20
507.475342
 30
0.0
 40
1.653844
210
0.0
220
0.0
230
1.0
100
AcDbArc
 50
54.455906
 51
59.499185
  0
ARC
  5
4B4
100
AcDbEntity
  8
0
370
    35
390
0
 62
     5
100
AcDbCircle
 10
1290.574585
 20
507.251343
 30
0.0
 40
1.929175
210
0.0
220
0.0
230
1.0
100
AcDbArc
 50
49.219303
 51
54.45591
  0
ARC
  5
4B5
100
AcDbEntity
  8
0
370
    35
390
0
 62
     5
100
AcDbCircle
 10
1290.153809
 20
506.763489
 30
0.0
 40
2.573433
210
0.0
220
0.0
230
1.0
100
AcDbArc
 50
45.000025
 51
49.219269
  0
ARC
  5
4B6
100
AcDbEntity
  8
0
370
    35
390
0
 62
     5
100
AcDbCircle
 10
1290.660278
 20
507.269958
 30
0.0
 40
1.857232
210
0.0
220
0.0
230
1.0
100
AcDbArc
 50
36.07348
 51
45.000001
  0
ARC
  5
4B7
100
AcDbEntity
  8
0
370
    35
390
0
 62
     5
100
AcDbCircle
 10
1291.74939
 20
508.063354
 30
0.0
 40
0.509762
210
0.0
220
0.0
230
1.0
100
AcDbArc
 50
12.714564
 51
36.073504
  0
ARC
  5
4B8
100
AcDbEntity
  8
0
370
    35
390
0
 62
     5
100
AcDbCircle
 10
1291.365967
 20
507.976868
 30
0.0
 40
0.902803
210
0.0
220
0.0
230
1.0
100
AcDbArc
 50
356.874707
 51
12.714628
  0
ARC
  5
4B9
100
AcDbEntity
  8
0
370
    35
390
0
 62
     5
100
AcDbCircle
 10
1281.589844
 20
508.51062
 30
0.0
 40
10.69348
210
0.0
220
0.0
230
1.0
100
AcDbArc
 50
354.284645
 51
356.874761
  0
ARC
  5
4BA
100
AcDbEntity
  8
0
370
    35
390
0
 62
     5
100
AcDbCircle
 10
1269.312012
 20
509.739441
 30
0.0
 40
23.032604
210
0.0
220
0.0
230
1.0
100
AcDbArc
 50
353.430051
 51
354.284672
  0
ARC
  5
4BB
100
AcDbEntity
  8
0
370
    35
390
0
 62
     5
100
AcDbCircle
 10
1262.419067
 20
510.533325
 30
0.0
 40
29.971113
210
0.0
220
0.0
230
1.0
100
AcDbArc
 50
352.728509
 51
353.430024
  0
ARC
  5
4BC
100
AcDbEntity
  8
0
370
    35
390
0
 62
     5
100
AcDbCircle
 10
1265.0896
 20
510.192566
 30
0.0
 40
27.278925
210
0.0
220
0.0
230
1.0
100
AcDbArc
 50
352.020082
 51
352.728481
  0
ARC
  5
4BD
100
AcDbEntity
  8
0
370
    35
390
0
 62
     5
100
AcDbCircle
 10
1284.798706
 20
507.429688
 30
0.0
 40
7.377148
210
0.0
220
0.0
230
1.0
100
AcDbArc
 50
350.14585
 51
352.020054
  0
ARC
  5
4BE
100
AcDbEntity
  8
0
370
    35
390
0
 62
     5
100
AcDbCircle
 10
1294.059937
 20
505.820984
 30
0.0
 40
2.022799
210
0.0
220
0.0
230
1.0
100
AcDbArc
 50
170.145886
 51
178.810842
  0
ARC
  5
4BF
100
AcDbEntity
  8
0
370
    35
390
0
 62
     5
100
AcDbCircle
 10
1292.289917
 20
505.857727
 30
0.0
 40
0.252416
210
0.0
220
0.0
230
1.0
100
AcDbArc
 50
178.810842
 51
218.926855
  0
ARC
  5
4C0
100
AcDbEntity
  8
0
370
    35
390
0
 62
     5
100
AcDbCircle
 10
1292.527466
 20
506.0495
 30
0.0
 40
0.557692
210
0.0
220
0.0
230
1.0
100
AcDbArc
 50
218.926828
 51
241.435361
  0
ARC
  5
4C1
100
AcDbEntity
  8
0
370
    35
390
0
 62
     5
100
AcDbCircle
 10
1301.210449
 20
521.998596
 30
0.0
 40
18.717163
210
0.0
220
0.0
230
1.0
100
AcDbArc
 50
241.435361
 51
243.21539
  0
ARC
  5
4C2
100
AcDbEntity
  8
0
370
    35
390
0
 62
     5
100
AcDbCircle
 10
1307.853149
 20
535.157837
 30
0.0
 40
33.457996
210
0.0
220
0.0
230
1.0
100
AcDbArc
 50
243.215472
 51
243.803551
  0
ARC
  5
4C3
100
AcDbEntity
  8
0
370
    35
390
0
 62
     5
100
AcDbCircle
 10
1301.390991
 20
522.022888
 30
0.0
 40
18.819427
210
0.0
220
0.0
230
1.0
100
AcDbArc
 50
243.803497
 51
244.708306
  0
ARC
  5
4C4
100
AcDbEntity
  8
0
370
    35
390
0
 62
     5
100
AcDbCircle
 10
1313.375732
 20
547.386353
 30
0.0
 40
46.871872
210
0.0
220
0.0
230
1.0
100
AcDbArc
 50
244.708306
 51
245.021374
  0
ARC
  5
4C5
100
AcDbEntity
  8
0
370
    35
390
0
 62
     5
100
AcDbCircle
 10
1293.621582
 20
504.982117
 30
0.0
 40
0.092146
210
0.0
220
0.0
230
1.0
100
AcDbArc
 50
245.021401
 51
269.999916
  0
ARC
  5
4C6
100
AcDbEntity
  8
0
370
    35
390
0
 62
     5
100
AcDbCircle
 10
1293.621582
 20
504.971436
 30
0.0
 40
0.08143
210
0.0
220
0.0
230
1.0
100
AcDbArc
 50
269.999997
 51
353.745606
  0
ARC
  5
4C7
100
AcDbEntity
  8
0
370
    35
390
0
 62
     5
100
AcDbCircle
 10
1090.329834
 20
527.25116
 30
0.0
 40
204.590332
210
0.0
220
0.0
230
1.0
100
AcDbArc
 50
353.745633
 51
354.10889
  0
ARC
  5
4C8
100
AcDbEntity
  8
0
370
    35
390
0
 62
     5
100
AcDbCircle
 10
1244.279053
 20
511.366211
 30
0.0
 40
49.823822
210
0.0
220
0.0
230
1.0
100
AcDbArc
 50
354.108862
 51
355.475938
  0
ARC
  5
4C9
100
AcDbEntity
  8
0
370
    35
390
0
 62
     5
100
AcDbCircle
 10
1290.682373
 20
507.69458
 30
0.0
 40
3.275483
210
0.0
220
0.0
230
1.0
100
AcDbArc
 50
355.475938
 51
5.447593
  0
ARC
  5
4CA
100
AcDbEntity
  8
0
370
    35
390
0
 62
     5
100
AcDbCircle
 10
1300.316284
 20
508.613342
 30
0.0
 40
6.402178
210
0.0
220
0.0
230
1.0
100
AcDbArc
 50
182.39205
 51
185.447576
  0
ARC
  5
4CB
100
AcDbEntity
  8
0
370
    35
390
0
 62
     5
100
AcDbCircle
 10
1294.099854
 20
508.353638
 30
0.0
 40
0.180315
210
0.0
220
0.0
230
1.0
100
AcDbArc
 50
142.242678
 51
182.392037
  0
ARC
  5
4CC
100
AcDbEntity
  8
0
370
    35
390
0
 62
     5
100
AcDbCircle
 10
1294.071533
 20
508.375549
 30
0.0
 40
0.144494
210
0.0
220
0.0
230
1.0
100
AcDbArc
 50
94.862093
 51
142.242596
  0
ARC
  5
4CD
100
AcDbEntity
  8
0
370
    35
390
0
 62
     5
100
AcDbCircle
 10
1294.374878
 20
504.808777
 30
0.0
 40
3.724146
210
0.0
220
0.0
230
1.0
100
AcDbArc
 50
90.361306
 51
94.862114
  0
ARC
  5
4CE
100
AcDbEntity
  8
0
370
    35
390
0
 62
     5
100
AcDbCircle
 10
1294.34314
 20
509.856079
 30
0.0
 40
1.323218
210
0.0
220
0.0
230
1.0
100
AcDbArc
 50
270.361205
 51
297.912139
  0
ARC
  5
4CF
100
AcDbEntity
  8
0
370
    35
390
0
 62
     5
100
AcDbCircle
 10
1294.32019
 20
509.899353
 30
0.0
 40
1.372219
210
0.0
220
0.0
230
1.0
100
AcDbArc
 50
297.912064
 51
324.722247
  0
ARC
  5
4D0
100
AcDbEntity
  8
0
370
    35
390
0
 62
     5
100
AcDbCircle
 10
1293.963013
 20
510.152039
 30
0.0
 40
1.809696
210
0.0
220
0.0
230
1.0
100
AcDbArc
 50
324.722165
 51
347.522566
  0
ARC
  5
4D1
100
AcDbEntity
  8
0
370
    35
390
0
 62
     5
100
AcDbCircle
 10
1292.713379
 20
510.428528
 30
0.0
 40
3.089588
210
0.0
220
0.0
230
1.0
100
AcDbArc
 50
347.522484
 51
2.79826
  0
ARC
  5
4D2
100
AcDbEntity
  8
0
370
    35
390
0
 62
     5
100
AcDbCircle
 10
1295.101318
 20
510.545288
 30
0.0
 40
0.698754
210
0.0
220
0.0
230
1.0
100
AcDbArc
 50
2.798189
 51
39.301629
  0
ARC
  5
4D3
100
AcDbEntity
  8
0
370
    35
390
0
 62
     5
100
AcDbCircle
 10
1293.141235
 20
508.940857
 30
0.0
 40
3.23178
210
0.0
220
0.0
230
1.0
100
AcDbArc
 50
39.301639
 51
51.023521
  0
ARC
  5
4D4
100
AcDbEntity
  8
0
370
    35
390
0
 62
     5
100
AcDbCircle
 10
1291.099243
 20
506.417114
 30
0.0
 40
6.478158
210
0.0
220
0.0
230
1.0
100
AcDbArc
 50
51.023538
 51
59.253633
  0
ARC
  5
4D5
100
AcDbEntity
  8
0
370
    35
390
0
 62
     5
100
AcDbCircle
 10
1282.773315
 20
492.420349
 30
0.0
 40
22.764071
210
0.0
220
0.0
230
1.0
100
AcDbArc
 50
59.253578
 51
62.483014
  0
LINE
  5
4D6
100
AcDbEntity
  8
0
370
    35
390
0
 62
     5
 48
0.046494
100
AcDbLine
 10
1293.290527
 20
512.609253
 30
0.0
 11
1291.641113
 21
513.468445
 31
0.0
210
0.0
220
0.0
230
1.0
  0
LINE
  5
4D7
100
AcDbEntity
  8
0
370
    35
390
0
 62
     5
 48
0.081104
100
AcDbLine
 10
1291.641113
 20
513.468445
 30
0.0
 11
1290.170532
 21
510.576721
 31
0.0
210
0.0
220
0.0
230
1.0
  0
ARC
  5
4D8
100
AcDbEntity
  8
0
370
    35
390
0
 62
     5
100
AcDbCircle
 10
1291.856689
 20
508.837646
 30
0.0
 40
2.706492
210
0.0
220
0.0
230
1.0
100
AcDbArc
 50
49.545636
 51
62.750054
  0
ARC
  5
4D9
100
AcDbEntity
  8
0
370
    35
390
0
 62
     5
100
AcDbCircle
 10
1292.94519
 20
510.114136
 30
0.0
 40
1.02886
210
0.0
220
0.0
230
1.0
100
AcDbArc
 50
22.3657
 51
49.545639
  0
ARC
  5
4DA
100
AcDbEntity
  8
0
370
    35
390
0
 62
     5
100
AcDbCircle
 10
1293.337891
 20
510.275757
 30
0.0
 40
0.604193
210
0.0
220
0.0
230
1.0
100
AcDbArc
 50
344.657384
 51
22.365791
  0
ARC
  5
4DB
100
AcDbEntity
  8
0
370
    35
390
0
 62
     5
100
AcDbCircle
 10
1293.210327
 20
510.310791
 30
0.0
 40
0.736554
210
0.0
220
0.0
230
1.0
100
AcDbArc
 50
312.144672
 51
344.657411
  0
ARC
  5
4DC
100
AcDbEntity
  8
0
370
    35
390
0
 62
     5
100
AcDbCircle
 10
1292.99939
 20
510.543823
 30
0.0
 40
1.050824
210
0.0
220
0.0
230
1.0
100
AcDbArc
 50
301.281369
 51
312.144754
  0
ARC
  5
4DD
100
AcDbEntity
  8
0
370
    35
390
0
 62
     5
100
AcDbCircle
 10
1293.361938
 20
509.947083
 30
0.0
 40
0.352641
210
0.0
220
0.0
230
1.0
100
AcDbArc
 50
276.761448
 51
301.28128
  0
ARC
  5
4DE
100
AcDbEntity
  8
0
370
    35
390
0
 62
     5
100
AcDbCircle
 10
1293.341309
 20
510.121155
 30
0.0
 40
0.527901
210
0.0
220
0.0
230
1.0
100
AcDbArc
 50
257.935643
 51
276.761393
  0
ARC
  5
4DF
100
AcDbEntity
  8
0
370
    35
390
0
 62
     5
100
AcDbCircle
 10
1293.971802
 20
513.071106
 30
0.0
 40
3.544498
210
0.0
220
0.0
230
1.0
100
AcDbArc
 50
253.32142
 51
257.935623
  0
ARC
  5
4E0
100
AcDbEntity
  8
0
370
    35
390
0
 62
     5
100
AcDbCircle
 10
1293.882324
 20
512.772278
 30
0.0
 40
3.23256
210
0.0
220
0.0
230
1.0
100
AcDbArc
 50
249.488011
 51
253.32142
  0
ARC
  5
4E1
100
AcDbEntity
  8
0
370
    35
390
0
 62
     5
100
AcDbCircle
 10
1294.14209
 20
513.466797
 30
0.0
 40
3.974043
210
0.0
220
0.0
230
1.0
100
AcDbArc
 50
246.20452
 51
249.488038
  0
ARC
  5
4E2
100
AcDbEntity
  8
0
370
    35
390
0
 62
     5
100
AcDbCircle
 10
1293.975098
 20
513.087952
 30
0.0
 40
3.560003
210
0.0
220
0.0
230
1.0
100
AcDbArc
 50
242.86746
 51
246.204581
  0
ARC
  5
4E3
100
AcDbEntity
  8
0
370
    35
390
0
 62
     5
100
AcDbCircle
 10
1292.776489
 20
510.748962
 30
0.0
 40
0.931831
210
0.0
220
0.0
230
1.0
100
AcDbArc
 50
233.825137
 51
242.86746
  0
ARC
  5
4E4
100
AcDbEntity
  8
0
370
    35
390
0
 62
     5
100
AcDbCircle
 10
1292.63269
 20
510.552368
 30
0.0
 40
0.688258
210
0.0
220
0.0
230
1.0
100
AcDbArc
 50
219.086859
 51
233.824973
  0
ARC
  5
4E5
100
AcDbEntity
  8
0
370
    35
390
0
 62
     5
100
AcDbCircle
 10
1292.220703
 20
510.217651
 30
0.0
 40
0.157424
210
0.0
220
0.0
230
1.0
100
AcDbArc
 50
175.055576
 51
219.086859
  0
ARC
  5
4E6
100
AcDbEntity
  8
0
370
    35
390
0
 62
     5
100
AcDbCircle
 10
1292.539917
 20
510.190063
 30
0.0
 40
0.477851
210
0.0
220
0.0
230
1.0
100
AcDbArc
 50
154.946379
 51
175.055617
  0
ARC
  5
4E7
100
AcDbEntity
  8
0
370
    35
390
0
 62
     5
100
AcDbCircle
 10
1304.870361
 20
504.426208
 30
0.0
 40
14.089002
210
0.0
220
0.0
230
1.0
100
AcDbArc
 50
153.207331
 51
154.946338
  0
ARC
  5
4E8
100
AcDbEntity
  8
0
370
    35
390
0
 62
     5
100
AcDbCircle
 10
1300.368774
 20
506.699402
 30
0.0
 40
9.045925
210
0.0
220
0.0
230
1.0
100
AcDbArc
 50
150.178156
 51
153.207318
  0
ARC
  5
4E9
100
AcDbEntity
  8
0
370
    35
390
0
 62
     5
100
AcDbCircle
 10
1292.853882
 20
511.007019
 30
0.0
 40
0.384035
210
0.0
220
0.0
230
1.0
100
AcDbArc
 50
120.198735
 51
150.178115
  0
ARC
  5
4EA
100
AcDbEntity
  8
0
370
    35
390
0
 62
     5
100
AcDbCircle
 10
1292.761475
 20
511.165894
 30
0.0
 40
0.200224
210
0.0
220
0.0
230
1.0
100
AcDbArc
 50
72.423207
 51
120.198721
  0
ARC
  5
4EB
100
AcDbEntity
  8
0
370
    35
390
0
 62
     5
100
AcDbCircle
 10
1292.291016
 20
509.680908
 30
0.0
 40
1.757916
210
0.0
220
0.0
230
1.0
100
AcDbArc
 50
62.750116
 51
72.423235
  0
ARC
  5
4EC
100
AcDbEntity
  8
0
370
    35
390
0
 62
     5
100
AcDbCircle
 10
1351.940308
 20
393.268311
 30
0.0
 40
127.197624
210
0.0
220
0.0
230
1.0
100
AcDbArc
 50
111.416928
 51
112.041221
  0
ARC
  5
4ED
100
AcDbEntity
  8
0
370
    35
390
0
 62
     5
100
AcDbCircle
 10
1306.309692
 20
505.974609
 30
0.0
 40
5.604583
210
0.0
220
0.0
230
1.0
100
AcDbArc
 50
112.041235
 51
118.063016
  0
ARC
  5
4EE
100
AcDbEntity
  8
0
370
    35
390
0
 62
     5
100
AcDbCircle
 10
1304.154053
 20
510.018066
 30
0.0
 40
1.022454
210
0.0
220
0.0
230
1.0
100
AcDbArc
 50
118.062975
 51
135.256515
  0
ARC
  5
4EF
100
AcDbEntity
  8
0
370
    35
390
0
 62
     5
100
AcDbCircle
 10
1303.563232
 20
510.603577
 30
0.0
 40
0.19068
210
0.0
220
0.0
230
1.0
100
AcDbArc
 50
135.256474
 51
194.714463
  0
ARC
  5
4F0
100
AcDbEntity
  8
0
370
    35
390
0
 62
     5
100
AcDbCircle
 10
1305.185547
 20
511.029602
 30
0.0
 40
1.867949
210
0.0
220
0.0
230
1.0
100
AcDbArc
 50
194.71434
 51
200.913829
  0
LINE
  5
4F1
100
AcDbEntity
  8
0
370
    35
390
0
 62
     5
 48
0.022551
100
AcDbLine
 10
1303.440674
 20
510.362793
 30
0.0
 11
1303.763794
 21
509.52063
 31
0.0
210
0.0
220
0.0
230
1.0
  0
ARC
  5
4F2
100
AcDbEntity
  8
0
370
    35
390
0
 62
     5
100
AcDbCircle
 10
1469.901001
 20
573.545654
 30
0.0
 40
178.047012
210
0.0
220
0.0
230
1.0
100
AcDbArc
 50
201.075404
 51
201.416422
  0
ARC
  5
4F3
100
AcDbEntity
  8
0
370
    35
390
0
 62
     5
100
AcDbCircle
 10
1579.993042
 20
616.72644
 30
0.0
 40
296.304565
210
0.0
220
0.0
230
1.0
100
AcDbArc
 50
201.416381
 51
201.649236
  0
ARC
  5
4F4
100
AcDbEntity
  8
0
370
    35
390
0
 62
     5
100
AcDbCircle
 10
1426.968994
 20
555.987671
 30
0.0
 40
131.666901
210
0.0
220
0.0
230
1.0
100
AcDbArc
 50
201.649181
 51
202.32022
  0
ARC
  5
4F5
100
AcDbEntity
  8
0
370
    35
390
0
 62
     5
100
AcDbCircle
 10
1320.449951
 20
512.25708
 30
0.0
 40
16.520571
210
0.0
220
0.0
230
1.0
100
AcDbArc
 50
202.320152
 51
205.416222
  0
ARC
  5
4F6
100
AcDbEntity
  8
0
370
    35
390
0
 62
     5
100
AcDbCircle
 10
1314.446533
 20
509.404358
 30
0.0
 40
9.873913
210
0.0
220
0.0
230
1.0
100
AcDbArc
 50
205.416235
 51
208.733658
  0
ARC
  5
4F7
100
AcDbEntity
  8
0
370
    35
390
0
 62
     5
100
AcDbCircle
 10
1305.889648
 20
504.713013
 30
0.0
 40
0.115316
210
0.0
220
0.0
230
1.0
100
AcDbArc
 50
208.733631
 51
287.814476
  0
ARC
  5
4F8
100
AcDbEntity
  8
0
370
    35
390
0
 62
     5
100
AcDbCircle
 10
1302.62793
 20
514.863037
 30
0.0
 40
10.776516
210
0.0
220
0.0
230
1.0
100
AcDbArc
 50
287.814422
 51
291.697787
  0
ARC
  5
4F9
100
AcDbEntity
  8
0
370
    35
390
0
 62
     5
100
AcDbCircle
 10
1213.722412
 20
738.297729
 30
0.0
 40
251.249527
210
0.0
220
0.0
230
1.0
100
AcDbArc
 50
291.697815
 51
292.092927
  0
LINE
  5
4FA
100
AcDbEntity
  8
0
370
    35
390
0
 62
     5
 48
0.04751
100
AcDbLine
 10
1308.219849
 20
505.496216
 30
0.0
 11
1309.980103
 21
506.212463
 31
0.0
210
0.0
220
0.0
230
1.0
  0
ARC
  5
4FB
100
AcDbEntity
  8
0
370
    35
390
0
 62
     5
100
AcDbCircle
 10
1309.814087
 20
506.619446
 30
0.0
 40
0.439551
210
0.0
220
0.0
230
1.0
100
AcDbArc
 50
292.18825
 51
314.83478
  0
ARC
  5
4FC
100
AcDbEntity
  8
0
370
    35
390
0
 62
     5
100
AcDbCircle
 10
1309.990479
 20
506.442078
 30
0.0
 40
0.189386
210
0.0
220
0.0
230
1.0
100
AcDbArc
 50
314.83478
 51
16.672478
  0
ARC
  5
4FD
100
AcDbEntity
  8
0
370
    35
390
0
 62
     5
100
AcDbCircle
 10
1305.802734
 20
505.187866
 30
0.0
 40
4.560902
210
0.0
220
0.0
230
1.0
100
AcDbArc
 50
16.672478
 51
22.840597
  0
ARC
  5
4FE
100
AcDbEntity
  8
0
370
    35
390
0
 62
     5
100
AcDbCircle
 10
1305.867188
 20
505.214966
 30
0.0
 40
4.491044
210
0.0
220
0.0
230
1.0
100
AcDbArc
 50
22.840549
 51
28.99653
  0
ARC
  5
4FF
100
AcDbEntity
  8
0
370
    35
390
0
 62
     5
100
AcDbCircle
 10
1309.69104
 20
507.33429
 30
0.0
 40
0.119207
210
0.0
220
0.0
230
1.0
100
AcDbArc
 50
28.996441
 51
112.527852
  0
ARC
  5
500
100
AcDbEntity
  8
0
370
    35
390
0
 62
     5
100
AcDbCircle
 10
1297.041992
 20
537.829651
 30
0.0
 40
32.895382
210
0.0
220
0.0
230
1.0
100
AcDbArc
 50
291.213944
 51
292.527819
  0
ARC
  5
501
100
AcDbEntity
  8
0
370
    35
390
0
 62
     5
100
AcDbCircle
 10
1278.055298
 20
586.744995
 30
0.0
 40
85.36644
210
0.0
220
0.0
230
1.0
100
AcDbArc
 50
290.569303
 51
291.213998
  0
LINE
  5
502
100
AcDbEntity
  8
0
370
    35
390
0
 62
     5
 48
0.024983
100
AcDbLine
 10
1308.047852
 20
506.820862
 30
0.0
 11
1307.111816
 21
506.470947
 31
0.0
210
0.0
220
0.0
230
1.0
  0
ARC
  5
503
100
AcDbEntity
  8
0
370
    35
390
0
 62
     5
100
AcDbCircle
 10
1306.995483
 20
506.783508
 30
0.0
 40
0.333545
210
0.0
220
0.0
230
1.0
100
AcDbArc
 50
269.99997
 51
290.423247
  0
ARC
  5
504
100
AcDbEntity
  8
0
370
    35
390
0
 62
     5
100
AcDbCircle
 10
1306.995483
 20
506.560974
 30
0.0
 40
0.110987
210
0.0
220
0.0
230
1.0
100
AcDbArc
 50
203.044042
 51
269.999943
  0
ARC
  5
505
100
AcDbEntity
  8
0
370
    35
390
0
 62
     5
100
AcDbCircle
 10
1329.295776
 20
516.047119
 30
0.0
 40
24.3451
210
0.0
220
0.0
230
1.0
100
AcDbArc
 50
201.562643
 51
203.044056
  0
ARC
  5
506
100
AcDbEntity
  8
0
370
    35
390
0
 62
     5
100
AcDbCircle
 10
1329.916626
 20
516.29248
 30
0.0
 40
25.012661
210
0.0
220
0.0
230
1.0
100
AcDbArc
 50
200.118836
 51
201.56267
  0
ARC
  5
507
100
AcDbEntity
  8
0
370
    35
390
0
 62
     5
100
AcDbCircle
 10
1306.522095
 20
507.722595
 30
0.0
 40
0.097802
210
0.0
220
0.0
230
1.0
100
AcDbArc
 50
127.841142
 51
200.118877
  0
ARC
  5
508
100
AcDbEntity
  8
0
370
    35
390
0
 62
     5
100
AcDbCircle
 10
1306.56604
 20
507.665894
 30
0.0
 40
0.169601
210
0.0
220
0.0
230
1.0
100
AcDbArc
 50
112.261795
 51
127.841224
  0
LINE
  5
509
100
AcDbEntity
  8
0
370
    35
390
0
 62
     5
 48
0.008602
100
AcDbLine
 10
1306.501831
 20
507.822815
 30
0.0
 11
1306.820435
 21
507.952759
 31
0.0
210
0.0
220
0.0
230
1.0
  0
ARC
  5
50A
100
AcDbEntity
  8
0
370
    35
390
0
 62
     5
100
AcDbCircle
 10
1324.546265
 20
464.342529
 30
0.0
 40
47.075043
210
0.0
220
0.0
230
1.0
100
AcDbArc
 50
111.637857
 51
112.11983
  0
ARC
  5
50B
100
AcDbEntity
  8
0
370
    35
390
0
 62
     5
100
AcDbCircle
 10
1338.38269
 20
429.462952
 30
0.0
 40
84.598793
210
0.0
220
0.0
230
1.0
100
AcDbArc
 50
111.327084
 51
111.637851
  0
ARC
  5
50C
100
AcDbEntity
  8
0
370
    35
390
0
 62
     5
100
AcDbCircle
 10
1297.515869
 20
534.134644
 30
0.0
 40
27.767841
210
0.0
220
0.0
230
1.0
100
AcDbArc
 50
291.327127
 51
292.286714
  0
ARC
  5
50D
100
AcDbEntity
  8
0
370
    35
390
0
 62
     5
100
AcDbCircle
 10
1301.312378
 20
524.871826
 30
0.0
 40
17.757215
210
0.0
220
0.0
230
1.0
100
AcDbArc
 50
292.286768
 51
293.628163
  0
ARC
  5
50E
100
AcDbEntity
  8
0
370
    35
390
0
 62
     5
100
AcDbCircle
 10
1298.86438
 20
530.467407
 30
0.0
 40
23.864845
210
0.0
220
0.0
230
1.0
100
AcDbArc
 50
293.628279
 51
294.465489
  0
ARC
  5
50F
100
AcDbEntity
  8
0
370
    35
390
0
 62
     5
100
AcDbCircle
 10
1308.600708
 20
509.068787
 30
0.0
 40
0.355283
210
0.0
220
0.0
230
1.0
100
AcDbArc
 50
294.465517
 51
311.496542
  0
ARC
  5
510
100
AcDbEntity
  8
0
370
    35
390
0
 62
     5
100
AcDbCircle
 10
1308.743652
 20
508.907227
 30
0.0
 40
0.139605
210
0.0
220
0.0
230
1.0
100
AcDbArc
 50
311.496487
 51
10.459601
  0
ARC
  5
511
100
AcDbEntity
  8
0
370
    35
390
0
 62
     5
100
AcDbCircle
 10
1305.275635
 20
508.266968
 30
0.0
 40
3.666262
210
0.0
220
0.0
230
1.0
100
AcDbArc
 50
10.459619
 51
15.995378
  0
ARC
  5
512
100
AcDbEntity
  8
0
370
    35
390
0
 62
     5
100
AcDbCircle
 10
1305.866821
 20
508.436462
 30
0.0
 40
3.051241
210
0.0
220
0.0
230
1.0
100
AcDbArc
 50
15.99534
 51
22.98486
  0
ARC
  5
513
100
AcDbEntity
  8
0
370
    35
390
0
 62
     5
100
AcDbCircle
 10
1307.844727
 20
509.275452
 30
0.0
 40
0.902716
210
0.0
220
0.0
230
1.0
100
AcDbArc
 50
22.984854
 51
40.295975
  0
ARC
  5
514
100
AcDbEntity
  8
0
370
    35
390
0
 62
     5
100
AcDbCircle
 10
1308.479248
 20
509.813477
 30
0.0
 40
0.070799
210
0.0
220
0.0
230
1.0
100
AcDbArc
 50
40.295992
 51
104.032387
  0
ARC
  5
515
100
AcDbEntity
  8
0
370
    35
390
0
 62
     5
100
AcDbCircle
 10
1311.470459
 20
497.845276
 30
0.0
 40
12.407122
210
0.0
220
0.0
230
1.0
100
AcDbArc
 50
104.03236
 51
105.672138
  0
ARC
  5
516
100
AcDbEntity
  8
0
370
    35
390
0
 62
     5
100
AcDbCircle
 10
1310.315186
 20
501.962952
 30
0.0
 40
8.130466
210
0.0
220
0.0
230
1.0
100
AcDbArc
 50
105.67207
 51
108.705589
  0
ARC
  5
517
100
AcDbEntity
  8
0
370
    35
390
0
 62
     5
100
AcDbCircle
 10
1312.518188
 20
495.45636
 30
0.0
 40
14.999862
210
0.0
220
0.0
230
1.0
100
AcDbArc
 50
108.705568
 51
110.623561
  0
ARC
  5
518
100
AcDbEntity
  8
0
370
    35
390
0
 62
     5
100
AcDbCircle
 10
1302.577148
 20
521.871155
 30
0.0
 40
13.223636
210
0.0
220
0.0
230
1.0
100
AcDbArc
 50
288.443591
 51
290.623515
  0
ARC
  5
519
100
AcDbEntity
  8
0
370
    35
390
0
 62
     5
100
AcDbCircle
 10
1304.440063
 20
516.285156
 30
0.0
 40
7.335182
210
0.0
220
0.0
230
1.0
100
AcDbArc
 50
285.054609
 51
288.443503
  0
ARC
  5
51A
100
AcDbEntity
  8
0
370
    35
390
0
 62
     5
100
AcDbCircle
 10
1303.772339
 20
518.767883
 30
0.0
 40
9.906143
210
0.0
220
0.0
230
1.0
100
AcDbArc
 50
283.000013
 51
285.054588
  0
ARC
  5
51B
100
AcDbEntity
  8
0
370
    35
390
0
 62
     5
100
AcDbCircle
 10
1305.981079
 20
509.200684
 30
0.0
 40
0.087288
210
0.0
220
0.0
230
1.0
100
AcDbArc
 50
223.431337
 51
282.999985
  0
ARC
  5
51C
100
AcDbEntity
  8
0
370
    35
390
0
 62
     5
100
AcDbCircle
 10
1306.160156
 20
509.370239
 30
0.0
 40
0.333911
210
0.0
220
0.0
230
1.0
100
AcDbArc
 50
208.9281
 51
223.431351
  0
ARC
  5
51D
100
AcDbEntity
  8
0
370
    35
390
0
 62
     5
100
AcDbCircle
 10
1309.835693
 20
511.401611
 30
0.0
 40
4.533426
210
0.0
220
0.0
230
1.0
100
AcDbArc
 50
206.774309
 51
208.928114
  0
ARC
  5
51E
100
AcDbEntity
  8
0
370
    35
390
0
 62
     5
100
AcDbCircle
 10
1310.11084
 20
511.540405
 30
0.0
 40
4.841509
210
0.0
220
0.0
230
1.0
100
AcDbArc
 50
204.377309
 51
206.774241
  0
ARC
  5
51F
100
AcDbEntity
  8
0
370
    35
390
0
 62
     5
100
AcDbCircle
 10
1311.226318
 20
512.045837
 30
0.0
 40
6.066168
210
0.0
220
0.0
230
1.0
100
AcDbArc
 50
202.353237
 51
204.377323
  0
LINE
  5
520
100
AcDbEntity
  8
0
370
    35
390
0
 62
     5
 48
0.013349
100
AcDbLine
 10
1305.615967
 20
509.738831
 30
0.0
 11
1305.412842
 21
510.232666
 31
0.0
210
0.0
220
0.0
230
1.0
  0
LINE
  5
521
100
AcDbEntity
  8
0
370
    35
390
0
 62
     5
 48
0.014898
100
AcDbLine
 10
1305.412842
 20
510.232666
 30
0.0
 11
1305.961426
 21
510.465393
 31
0.0
210
0.0
220
0.0
230
1.0
  0
ARC
  5
522
100
AcDbEntity
  8
0
370
    35
390
0
 62
     5
100
AcDbCircle
 10
1313.981201
 20
491.565552
 30
0.0
 40
20.531015
210
0.0
220
0.0
230
1.0
100
AcDbArc
 50
112.18585
 51
112.993261
  0
ARC
  5
523
100
AcDbEntity
  8
0
370
    35
390
0
 62
     5
100
AcDbCircle
 10
1330.546021
 20
450.946167
 30
0.0
 40
64.398186
210
0.0
220
0.0
230
1.0
100
AcDbArc
 50
111.841404
 51
112.185864
  0
ARC
  5
524
100
AcDbEntity
  8
0
370
    35
390
0
 62
     5
100
AcDbCircle
 10
1332.432617
 20
446.23938
 30
0.0
 40
69.468941
210
0.0
220
0.0
230
1.0
100
AcDbArc
 50
111.500844
 51
111.841411
  0
ARC
  5
525
100
AcDbEntity
  8
0
370
    35
390
0
 62
     5
100
AcDbCircle
 10
1324.654541
 20
465.98407
 30
0.0
 40
48.247478
210
0.0
220
0.0
230
1.0
100
AcDbArc
 50
111.053186
 51
111.500782
  0
ARC
  5
526
100
AcDbEntity
  8
0
370
    35
390
0
 62
     5
100
AcDbCircle
 10
1305.081665
 20
516.832153
 30
0.0
 40
6.237628
210
0.0
220
0.0
230
1.0
100
AcDbArc
 50
291.053134
 51
294.144641
  0
ARC
  5
527
100
AcDbEntity
  8
0
370
    35
390
0
 62
     5
100
AcDbCircle
 10
1306.202271
 20
514.332031
 30
0.0
 40
3.497788
210
0.0
220
0.0
230
1.0
100
AcDbArc
 50
294.144552
 51
298.911778
  0
ARC
  5
528
100
AcDbEntity
  8
0
370
    35
390
0
 62
     5
100
AcDbCircle
 10
1306.171021
 20
514.388672
 30
0.0
 40
3.5625
210
0.0
220
0.0
230
1.0
100
AcDbArc
 50
298.911806
 51
302.638473
  0
ARC
  5
529
100
AcDbEntity
  8
0
370
    35
390
0
 62
     5
100
AcDbCircle
 10
1308.053833
 20
511.449036
 30
0.0
 40
0.071654
210
0.0
220
0.0
230
1.0
100
AcDbArc
 50
302.638473
 51
4.22017
  0
ARC
  5
52A
100
AcDbEntity
  8
0
370
    35
390
0
 62
     5
100
AcDbCircle
 10
1307.81311
 20
511.431274
 30
0.0
 40
0.312969
210
0.0
220
0.0
230
1.0
100
AcDbArc
 50
4.220053
 51
18.586114
  0
ARC
  5
52B
100
AcDbEntity
  8
0
370
    35
390
0
 62
     5
100
AcDbCircle
 10
1303.435303
 20
509.959167
 30
0.0
 40
4.931634
210
0.0
220
0.0
230
1.0
100
AcDbArc
 50
18.586137
 51
20.507564
  0
ARC
  5
52C
100
AcDbEntity
  8
0
370
    35
390
0
 62
     5
100
AcDbCircle
 10
1303.240723
 20
509.886414
 30
0.0
 40
5.139361
210
0.0
220
0.0
230
1.0
100
AcDbArc
 50
20.507477
 51
22.704819
  0
ARC
  5
52D
100
AcDbEntity
  8
0
370
    35
390
0
 62
     5
100
AcDbCircle
 10
1301.87146
 20
509.313477
 30
0.0
 40
6.623756
210
0.0
220
0.0
230
1.0
100
AcDbArc
 50
22.70484
 51
24.521535
  0
LINE
  5
52E
100
AcDbEntity
  8
0
370
    35
390
0
 62
     5
 48
0.013121
100
AcDbLine
 10
1307.897705
 20
512.062561
 30
0.0
 11
1307.679932
 21
512.5401
 31
0.0
210
0.0
220
0.0
230
1.0
  0
LINE
  5
52F
100
AcDbEntity
  8
0
370
    35
390
0
 62
     5
 48
0.058704
100
AcDbLine
 10
1307.679932
 20
512.5401
 30
0.0
 11
1305.493896
 21
511.682678
 31
0.0
210
0.0
220
0.0
230
1.0
  0
ARC
  5
530
100
AcDbEntity
  8
0
370
    35
390
0
 62
     5
100
AcDbCircle
 10
1300.336914
 20
505.40741
 30
0.0
 40
5.470909
210
0.0
220
0.0
230
1.0
100
AcDbArc
 50
109.65963
 51
116.295609
  0
ARC
  5
531
100
AcDbEntity
  8
0
370
    35
390
0
 62
     5
100
AcDbCircle
 10
1299.182861
 20
507.742798
 30
0.0
 40
2.865915
210
0.0
220
0.0
230
1.0
100
AcDbArc
 50
116.295555
 51
127.061531
  0
ARC
  5
532
100
AcDbEntity
  8
0
370
    35
390
0
 62
     5
100
AcDbCircle
 10
1298.963623
 20
508.033203
 30
0.0
 40
2.502022
210
0.0
220
0.0
230
1.0
100
AcDbArc
 50
127.061476
 51
138.696731
  0
ARC
  5
533
100
AcDbEntity
  8
0
370
    35
390
0
 62
     5
100
AcDbCircle
 10
1299.525757
 20
507.539246
 30
0.0
 40
3.250349
210
0.0
220
0.0
230
1.0
100
AcDbArc
 50
138.696731
 51
148.259351
  0
ARC
  5
534
100
AcDbEntity
  8
0
370
    35
390
0
 62
     5
100
AcDbCircle
 10
1300.334717
 20
507.038818
 30
0.0
 40
4.20161
210
0.0
220
0.0
230
1.0
100
AcDbArc
 50
148.259365
 51
154.305407
  0
ARC
  5
535
100
AcDbEntity
  8
0
370
    35
390
0
 62
     5
100
AcDbCircle
 10
1298.085815
 20
508.120911
 30
0.0
 40
1.705903
210
0.0
220
0.0
230
1.0
100
AcDbArc
 50
154.305421
 51
166.159883
  0
ARC
  5
536
100
AcDbEntity
  8
0
370
    35
390
0
 62
     5
100
AcDbCircle
 10
1298.891113
 20
507.922485
 30
0.0
 40
2.535341
210
0.0
220
0.0
230
1.0
100
AcDbArc
 50
166.159952
 51
175.342759
  0
ARC
  5
537
100
AcDbEntity
  8
0
370
    35
390
0
 62
     5
100
AcDbCircle
 10
1311.974976
 20
506.856689
 30
0.0
 40
15.662435
210
0.0
220
0.0
230
1.0
100
AcDbArc
 50
175.342841
 51
177.732683
  0
ARC
  5
538
100
AcDbEntity
  8
0
370
    35
390
0
 62
     5
100
AcDbCircle
 10
1315.059448
 20
506.734558
 30
0.0
 40
18.749348
210
0.0
220
0.0
230
1.0
100
AcDbArc
 50
177.73271
 51
179.819592
  0
ARC
  5
539
100
AcDbEntity
  8
0
370
    35
390
0
 62
     5
100
AcDbCircle
 10
1298.478882
 20
506.786743
 30
0.0
 40
2.168714
210
0.0
220
0.0
230
1.0
100
AcDbArc
 50
179.819565
 51
190.024759
  0
ARC
  5
53A
100
AcDbEntity
  8
0
370
    35
390
0
 62
     5
100
AcDbCircle
 10
1297.775391
 20
506.662415
 30
0.0
 40
1.454387
210
0.0
220
0.0
230
1.0
100
AcDbArc
 50
190.024636
 51
203.356742
  0
ARC
  5
53B
100
AcDbEntity
  8
0
370
    35
390
0
 62
     5
100
AcDbCircle
 10
1301.169189
 20
508.12793
 30
0.0
 40
5.150996
210
0.0
220
0.0
230
1.0
100
AcDbArc
 50
203.356728
 51
208.558068
  0
ARC
  5
53C
100
AcDbEntity
  8
0
370
    35
390
0
 62
     5
100
AcDbCircle
 10
1299.447632
 20
507.19104
 30
0.0
 40
3.191084
210
0.0
220
0.0
230
1.0
100
AcDbArc
 50
208.55804
 51
228.147064
  0
ARC
  5
53D
100
AcDbEntity
  8
0
370
    35
390
0
 62
     5
100
AcDbCircle
 10
1299.453613
 20
507.197632
 30
0.0
 40
3.199951
210
0.0
220
0.0
230
1.0
100
AcDbArc
 50
228.147064
 51
247.695359
  0
ARC
  5
53E
100
AcDbEntity
  8
0
370
    35
390
0
 62
     5
100
AcDbCircle
 10
1299.937256
 20
508.376587
 30
0.0
 40
4.474246
210
0.0
220
0.0
230
1.0
100
AcDbArc
 50
247.695386
 51
263.789826
  0
ARC
  5
53F
100
AcDbEntity
  8
0
370
    35
390
0
 62
     5
100
AcDbCircle
 10
1300.578125
 20
514.266541
 30
0.0
 40
10.39896
210
0.0
220
0.0
230
1.0
100
AcDbArc
 50
263.789853
 51
272.359363
  0
ARC
  5
540
100
AcDbEntity
  8
0
370
    35
390
0
 62
     5
100
AcDbCircle
 10
1300.084839
 20
526.240295
 30
0.0
 40
22.382879
210
0.0
220
0.0
230
1.0
100
AcDbArc
 50
272.359309
 51
273.758678
  0
ARC
  5
541
100
AcDbEntity
  8
0
370
    35
390
0
 62
     5
100
AcDbCircle
 10
1300.697388
 20
516.915649
 30
0.0
 40
13.038131
210
0.0
220
0.0
230
1.0
100
AcDbArc
 50
273.758678
 51
275.856092
  0
ARC
  5
542
100
AcDbEntity
  8
0
370
    35
390
0
 62
     5
100
AcDbCircle
 10
1299.865479
 20
525.026428
 30
0.0
 40
21.191479
210
0.0
220
0.0
230
1.0
100
AcDbArc
 50
275.856092
 51
276.93988
  0
ARC
  5
543
100
AcDbEntity
  8
0
370
    35
390
0
 62
     5
100
AcDbCircle
 10
1302.409058
 20
504.130188
 30
0.0
 40
0.141004
210
0.0
220
0.0
230
1.0
100
AcDbArc
 50
276.939907
 51
314.999965
  0
ARC
  5
544
100
AcDbEntity
  8
0
370
    35
390
0
 62
     5
100
AcDbCircle
 10
1302.411011
 20
504.128235
 30
0.0
 40
0.138241
210
0.0
220
0.0
230
1.0
100
AcDbArc
 50
315.000047
 51
354.87133
  0
ARC
  5
545
100
AcDbEntity
  8
0
370
    35
390
0
 62
     5
100
AcDbCircle
 10
1262.446655
 20
507.715149
 30
0.0
 40
40.263172
210
0.0
220
0.0
230
1.0
100
AcDbArc
 50
354.871275
 51
355.598253
  0
ARC
  5
546
100
AcDbEntity
  8
0
370
    35
390
0
 62
     5
100
AcDbCircle
 10
1282.531982
 20
506.169067
 30
0.0
 40
20.118504
210
0.0
220
0.0
230
1.0
100
AcDbArc
 50
355.598171
 51
357.311074
  0
ARC
  5
547
100
AcDbEntity
  8
0
370
    35
390
0
 62
     5
100
AcDbCircle
 10
1267.009888
 20
506.898071
 30
0.0
 40
35.657707
210
0.0
220
0.0
230
1.0
100
AcDbArc
 50
357.311019
 51
358.426908
  0
LINE
  5
548
100
AcDbEntity
  8
0
370
    35
390
0
 62
     5
 48
0.044832
100
AcDbLine
 10
1302.654053
 20
505.919189
 30
0.0
 11
1302.703369
 21
507.711792
 31
0.0
210
0.0
220
0.0
230
1.0
  0
LINE
  5
549
100
AcDbEntity
  8
0
370
    35
390
0
 62
     5
 48
0.010722
100
AcDbLine
 10
1302.703369
 20
507.711792
 30
0.0
 11
1302.282837
 21
507.795898
 31
0.0
210
0.0
220
0.0
230
1.0
  0
ARC
  5
54A
100
AcDbEntity
  8
0
370
    35
390
0
 62
     5
100
AcDbCircle
 10
1301.866821
 20
505.715759
 30
0.0
 40
2.121316
210
0.0
220
0.0
230
1.0
100
AcDbArc
 50
78.690036
 51
84.811436
  0
ARC
  5
54B
100
AcDbEntity
  8
0
370
    35
390
0
 62
     5
100
AcDbCircle
 10
1300.974854
 20
495.893433
 30
0.0
 40
11.98405
210
0.0
220
0.0
230
1.0
100
AcDbArc
 50
84.811442
 51
86.5108
  0
ARC
  5
54C
100
AcDbEntity
  8
0
370
    35
390
0
 62
     5
100
AcDbCircle
 10
1300.882446
 20
494.37616
 30
0.0
 40
13.504169
210
0.0
220
0.0
230
1.0
100
AcDbArc
 50
86.510814
 51
88.221401
  0
ARC
  5
54D
100
AcDbEntity
  8
0
370
    35
390
0
 62
     5
100
AcDbCircle
 10
1300.903687
 20
495.060364
 30
0.0
 40
12.819628
210
0.0
220
0.0
230
1.0
100
AcDbArc
 50
88.221367
 51
90.000023
  0
LINE
  5
54E
100
AcDbEntity
  8
0
370
    35
390
0
 62
     5
 48
0.023972
100
AcDbLine
 10
1300.903687
 20
507.880005
 30
0.0
 11
1299.944824
 21
507.880005
 31
0.0
210
0.0
220
0.0
230
1.0
  0
LINE
  5
54F
100
AcDbEntity
  8
0
370
    35
390
0
 62
     5
 48
0.016251
100
AcDbLine
 10
1299.944824
 20
507.880005
 30
0.0
 11
1299.944824
 21
507.22998
 31
0.0
210
0.0
220
0.0
230
1.0
  0
LINE
  5
550
100
AcDbEntity
  8
0
370
    35
390
0
 62
     5
 48
0.016251
100
AcDbLine
 10
1299.944824
 20
507.22998
 30
0.0
 11
1299.944824
 21
506.579956
 31
0.0
210
0.0
220
0.0
230
1.0
  0
LINE
  5
551
100
AcDbEntity
  8
0
370
    35
390
0
 62
     5
 48
0.013443
100
AcDbLine
 10
1299.944824
 20
506.579956
 30
0.0
 11
1300.482544
 21
506.579956
 31
0.0
210
0.0
220
0.0
230
1.0
  0
LINE
  5
552
100
AcDbEntity
  8
0
370
    35
390
0
 62
     5
 48
0.013443
100
AcDbLine
 10
1300.482544
 20
506.579956
 30
0.0
 11
1301.020264
 21
506.579956
 31
0.0
210
0.0
220
0.0
230
1.0
  0
LINE
  5
553
100
AcDbEntity
  8
0
370
    35
390
0
 62
     5
 48
0.015033
100
AcDbLine
 10
1301.020264
 20
506.579956
 30
0.0
 11
1300.938599
 21
505.984192
 31
0.0
210
0.0
220
0.0
230
1.0
  0
ARC
  5
554
100
AcDbEntity
  8
0
370
    35
390
0
 62
     5
100
AcDbCircle
 10
1292.060303
 20
507.201111
 30
0.0
 40
8.961263
210
0.0
220
0.0
230
1.0
100
AcDbArc
 50
348.951251
 51
352.195343
  0
ARC
  5
555
100
AcDbEntity
  8
0
370
    35
390
0
 62
     5
100
AcDbCircle
 10
1300.37207
 20
505.578125
 30
0.0
 40
0.492464
210
0.0
220
0.0
230
1.0
100
AcDbArc
 50
322.126393
 51
348.951251
  0
ARC
  5
556
100
AcDbEntity
  8
0
370
    35
390
0
 62
     5
100
AcDbCircle
 10
1300.552856
 20
505.4375
 30
0.0
 40
0.263449
210
0.0
220
0.0
230
1.0
100
AcDbArc
 50
280.456826
 51
322.126362
  0
ARC
  5
557
100
AcDbEntity
  8
0
370
    35
390
0
 62
     5
100
AcDbCircle
 10
1300.289795
 20
506.863342
 30
0.0
 40
1.713389
210
0.0
220
0.0
230
1.0
100
AcDbArc
 50
270.000052
 51
280.456826
  0
ARC
  5
558
100
AcDbEntity
  8
0
370
    35
390
0
 62
     5
100
AcDbCircle
 10
1300.289795
 20
506.663147
 30
0.0
 40
1.51318
210
0.0
220
0.0
230
1.0
100
AcDbArc
 50
251.431534
 51
269.999997
  0
ARC
  5
559
100
AcDbEntity
  8
0
370
    35
390
0
 62
     5
100
AcDbCircle
 10
1300.884155
 20
508.432495
 30
0.0
 40
3.379696
210
0.0
220
0.0
230
1.0
100
AcDbArc
 50
241.248077
 51
251.431534
  0
ARC
  5
55A
100
AcDbEntity
  8
0
370
    35
390
0
 62
     5
100
AcDbCircle
 10
1300.901123
 20
508.463501
 30
0.0
 40
3.415011
210
0.0
220
0.0
230
1.0
100
AcDbArc
 50
231.09664
 51
241.248077
  0
ARC
  5
55B
100
AcDbEntity
  8
0
370
    35
390
0
 62
     5
100
AcDbCircle
 10
1299.792725
 20
507.089966
 30
0.0
 40
1.65008
210
0.0
220
0.0
230
1.0
100
AcDbArc
 50
213.606151
 51
231.096613
  0
ARC
  5
55C
100
AcDbEntity
  8
0
370
    35
390
0
 62
     5
100
AcDbCircle
 10
1299.673462
 20
507.010742
 30
0.0
 40
1.506878
210
0.0
220
0.0
230
1.0
100
AcDbArc
 50
194.795209
 51
213.606138
  0
ARC
  5
55D
100
AcDbEntity
  8
0
370
    35
390
0
 62
     5
100
AcDbCircle
 10
1300.956665
 20
507.34967
 30
0.0
 40
2.834068
210
0.0
220
0.0
230
1.0
100
AcDbArc
 50
183.070834
 51
194.795237
  0
ARC
  5
55E
100
AcDbEntity
  8
0
370
    35
390
0
 62
     5
100
AcDbCircle
 10
1300.955933
 20
507.349609
 30
0.0
 40
2.833352
210
0.0
220
0.0
230
1.0
100
AcDbArc
 50
171.345254
 51
183.070793
  0
ARC
  5
55F
100
AcDbEntity
  8
0
370
    35
390
0
 62
     5
100
AcDbCircle
 10
1299.641968
 20
507.549622
 30
0.0
 40
1.504301
210
0.0
220
0.0
230
1.0
100
AcDbArc
 50
152.512004
 51
171.345254
  0
ARC
  5
560
100
AcDbEntity
  8
0
370
    35
390
0
 62
     5
100
AcDbCircle
 10
1300.080688
 20
507.32135
 30
0.0
 40
1.998824
210
0.0
220
0.0
230
1.0
100
AcDbArc
 50
127.058034
 51
152.512045
  0
ARC
  5
561
100
AcDbEntity
  8
0
370
    35
390
0
 62
     5
100
AcDbCircle
 10
1300.399658
 20
506.898987
 30
0.0
 40
2.528073
210
0.0
220
0.0
230
1.0
100
AcDbArc
 50
105.713099
 51
127.05802
  0
ARC
  5
562
100
AcDbEntity
  8
0
370
    35
390
0
 62
     5
100
AcDbCircle
 10
1300.550415
 20
506.362976
 30
0.0
 40
3.084923
210
0.0
220
0.0
230
1.0
100
AcDbArc
 50
86.608943
 51
105.713051
  0
ARC
  5
563
100
AcDbEntity
  8
0
370
    35
390
0
 62
     5
100
AcDbCircle
 10
1300.490234
 20
505.345825
 30
0.0
 40
4.103825
210
0.0
220
0.0
230
1.0
100
AcDbArc
 50
71.184218
 51
86.608978
  0
ARC
  5
564
100
AcDbEntity
  8
0
370
    35
390
0
 62
     5
100
AcDbCircle
 10
1304.251709
 20
516.385315
 30
0.0
 40
7.558886
210
0.0
220
0.0
230
1.0
100
AcDbArc
 50
251.184281
 51
253.085533
  0
ARC
  5
565
100
AcDbEntity
  8
0
370
    35
390
0
 62
     5
100
AcDbCircle
 10
1303.252441
 20
513.099304
 30
0.0
 40
4.124289
210
0.0
220
0.0
230
1.0
100
AcDbArc
 50
253.085553
 51
256.077832
  0
ARC
  5
566
100
AcDbEntity
  8
0
370
    35
390
0
 62
     5
100
AcDbCircle
 10
1303.777832
 20
515.219055
 30
0.0
 40
6.308232
210
0.0
220
0.0
230
1.0
100
AcDbArc
 50
256.077914
 51
257.693854
  0
ARC
  5
567
100
AcDbEntity
  8
0
370
    35
390
0
 62
     5
100
AcDbCircle
 10
1302.441284
 20
509.091858
 30
0.0
 40
0.036947
210
0.0
220
0.0
230
1.0
100
AcDbArc
 50
257.694018
 51
319.430982
  0
ARC
  5
568
100
AcDbEntity
  8
0
370
    35
390
0
 62
     5
100
AcDbCircle
 10
1302.405518
 20
509.122498
 30
0.0
 40
0.08397
210
0.0
220
0.0
230
1.0
100
AcDbArc
 50
319.430872
 51
349.248035
  0
ARC
  5
569
100
AcDbEntity
  8
0
370
    35
390
0
 62
     5
100
AcDbCircle
 10
1288.761353
 20
511.713379
 30
0.0
 40
13.971999
210
0.0
220
0.0
230
1.0
100
AcDbArc
 50
349.24798
 51
350.040502
  0
ARC
  5
56A
100
AcDbEntity
  8
0
370
    35
390
0
 62
     5
100
AcDbCircle
 10
1294.515015
 20
510.703064
 30
0.0
 40
8.130303
210
0.0
220
0.0
230
1.0
100
AcDbArc
 50
350.040584
 51
351.651934
  0
ARC
  5
56B
100
AcDbEntity
  8
0
370
    35
390
0
 62
     5
100
AcDbCircle
 10
1288.886597
 20
511.528931
 30
0.0
 40
13.818918
210
0.0
220
0.0
230
1.0
100
AcDbArc
 50
351.651961
 51
352.735093
  0
LINE
  5
56C
100
AcDbEntity
  8
0
370
    35
390
0
 62
     5
 48
0.016797
100
AcDbLine
 10
1302.594604
 20
509.781433
 30
0.0
 11
1302.679565
 21
510.447937
 31
0.0
210
0.0
220
0.0
230
1.0
  0
LINE
  5
56D
100
AcDbEntity
  8
0
370
    35
390
0
 62
     5
 48
0.014951
100
AcDbLine
 10
1302.679565
 20
510.447937
 30
0.0
 11
1302.099609
 21
510.593933
 31
0.0
210
0.0
220
0.0
230
1.0
  0
ARC
  5
56E
100
AcDbEntity
  8
0
370
    35
390
0
 62
     5
100
AcDbCircle
 10
1301.158691
 20
506.857117
 30
0.0
 40
3.853512
210
0.0
220
0.0
230
1.0
100
AcDbArc
 50
75.866531
 51
87.064667
  0
ARC
  5
56F
100
AcDbEntity
  8
0
370
    35
390
0
 62
     5
100
AcDbCircle
 10
1300.403687
 20
492.132813
 30
0.0
 40
18.597122
210
0.0
220
0.0
230
1.0
100
AcDbArc
 50
87.064647
 51
90.549566
  0
ARC
  5
570
100
AcDbEntity
  8
0
370
    35
390
0
 62
     5
100
AcDbCircle
 10
1300.414795
 20
490.972229
 30
0.0
 40
19.757776
210
0.0
220
0.0
230
1.0
100
AcDbArc
 50
90.549635
 51
93.783647
  0
ARC
  5
571
100
AcDbEntity
  8
0
370
    35
390
0
 62
     5
100
AcDbCircle
 10
1299.261108
 20
508.418884
 30
0.0
 40
2.273025
210
0.0
220
0.0
230
1.0
100
AcDbArc
 50
93.783681
 51
109.65965
  0
ARC
  5
572
100
AcDbEntity
  8
0
370
    35
390
0
 62
     5
100
AcDbCircle
 10
1298.391968
 20
467.521423
 30
0.0
 40
11.165875
210
0.0
220
0.0
230
1.0
100
AcDbArc
 50
96.754274
 51
103.011253
  0
ARC
  5
573
100
AcDbEntity
  8
0
370
    35
390
0
 62
     5
100
AcDbCircle
 10
1299.76123
 20
455.960449
 30
0.0
 40
22.807613
210
0.0
220
0.0
230
1.0
100
AcDbArc
 50
93.087166
 51
96.75424
  0
ARC
  5
574
100
AcDbEntity
  8
0
370
    35
390
0
 62
     5
100
AcDbCircle
 10
1301.190674
 20
429.454285
 30
0.0
 40
49.352291
210
0.0
220
0.0
230
1.0
100
AcDbArc
 50
91.44984
 51
93.087091
  0
ARC
  5
575
100
AcDbEntity
  8
0
370
    35
390
0
 62
     5
100
AcDbCircle
 10
1299.946045
 20
478.629517
 30
0.0
 40
0.161339
210
0.0
220
0.0
230
1.0
100
AcDbArc
 50
359.714426
 51
91.44984
  0
ARC
  5
576
100
AcDbEntity
  8
0
370
    35
390
0
 62
     5
100
AcDbCircle
 10
1299.90332
 20
478.6297
 30
0.0
 40
0.204066
210
0.0
220
0.0
230
1.0
100
AcDbArc
 50
336.521399
 51
359.714535
  0
ARC
  5
577
100
AcDbEntity
  8
0
370
    35
390
0
 62
     5
100
AcDbCircle
 10
1296.063354
 20
480.297668
 30
0.0
 40
4.390641
210
0.0
220
0.0
230
1.0
100
AcDbArc
 50
334.025839
 51
336.521317
  0
ARC
  5
578
100
AcDbEntity
  8
0
370
    35
390
0
 62
     5
100
AcDbCircle
 10
1296.040283
 20
480.30896
 30
0.0
 40
4.416378
210
0.0
220
0.0
230
1.0
100
AcDbArc
 50
331.037194
 51
334.025812
  0
ARC
  5
579
100
AcDbEntity
  8
0
370
    35
390
0
 62
     5
100
AcDbCircle
 10
1294.503418
 20
481.159546
 30
0.0
 40
6.172927
210
0.0
220
0.0
230
1.0
100
AcDbArc
 50
328.712006
 51
331.037221
  0
ARC
  5
57A
100
AcDbEntity
  8
0
370
    35
390
0
 62
     5
100
AcDbCircle
 10
1307.014282
 20
473.556396
 30
0.0
 40
8.467127
210
0.0
220
0.0
230
1.0
100
AcDbArc
 50
148.711947
 51
151.320396
  0
ARC
  5
57B
100
AcDbEntity
  8
0
370
    35
390
0
 62
     5
100
AcDbCircle
 10
1428.586792
 20
407.05365
 30
0.0
 40
147.0401
210
0.0
220
0.0
230
1.0
100
AcDbArc
 50
151.320396
 51
151.646291
  0
ARC
  5
57C
100
AcDbEntity
  8
0
370
    35
390
0
 62
     5
100
AcDbCircle
 10
1429.735229
 20
406.43396
 30
0.0
 40
148.345062
210
0.0
220
0.0
230
1.0
100
AcDbArc
 50
151.646332
 51
152.029984
  0
ARC
  5
57D
100
AcDbEntity
  8
0
370
    35
390
0
 62
     5
100
AcDbCircle
 10
1467.094604
 20
386.594788
 30
0.0
 40
190.645416
210
0.0
220
0.0
230
1.0
100
AcDbArc
 50
152.030012
 51
152.347889
  0
LINE
  5
57E
100
AcDbEntity
  8
0
370
    35
390
0
 62
     5
 48
0.026431
100
AcDbLine
 10
1297.731934
 20
474.138184
 30
0.0
 11
1298.224365
 21
475.07373
 31
0.0
210
0.0
220
0.0
230
1.0
  0
ARC
  5
57F
100
AcDbEntity
  8
0
370
    35
390
0
 62
     5
100
AcDbCircle
 10
1107.949097
 20
574.498535
 30
0.0
 40
214.68512
210
0.0
220
0.0
230
1.0
100
AcDbArc
 50
331.864658
 51
332.129369
  0
LINE
  5
580
100
AcDbEntity
  8
0
370
    35
390
0
 62
     5
 48
0.020873
100
AcDbLine
 10
1296.871094
 20
472.526978
 30
0.0
 11
1297.266235
 21
473.262451
 31
0.0
210
0.0
220
0.0
230
1.0
  0
ARC
  5
581
100
AcDbEntity
  8
0
370
    35
390
0
 62
     5
100
AcDbCircle
 10
1286.286987
 20
478.23999
 30
0.0
 40
12.027539
210
0.0
220
0.0
230
1.0
100
AcDbArc
 50
329.820874
 51
331.64101
  0
ARC
  5
582
100
AcDbEntity
  8
0
370
    35
390
0
 62
     5
100
AcDbCircle
 10
1308.212524
 20
465.489746
 30
0.0
 40
13.335777
210
0.0
220
0.0
230
1.0
100
AcDbArc
 50
149.820882
 51
151.547978
  0
LINE
  5
583
100
AcDbEntity
  8
0
370
    35
390
0
 62
     5
 48
0.025668
100
AcDbLine
 10
1295.999512
 20
470.93988
 30
0.0
 11
1296.487549
 21
471.843201
 31
0.0
210
0.0
220
0.0
230
1.0
  0
LINE
  5
584
100
AcDbEntity
  8
0
370
    35
390
0
 62
     5
 48
0.030618
100
AcDbLine
 10
1295.420654
 20
469.860596
 30
0.0
 11
1295.999512
 21
470.93988
 31
0.0
210
0.0
220
0.0
230
1.0
  0
LINE
  5
585
100
AcDbEntity
  8
0
370
    35
390
0
 62
     5
 48
0.033331
100
AcDbLine
 10
1294.794189
 20
468.683716
 30
0.0
 11
1295.420654
 21
469.860596
 31
0.0
210
0.0
220
0.0
230
1.0
  0
LINE
  5
586
100
AcDbEntity
  8
0
370
    35
390
0
 62
     5
 48
0.06199
100
AcDbLine
 10
1293.630615
 20
466.49408
 30
0.0
 11
1294.794189
 21
468.683716
 31
0.0
210
0.0
220
0.0
230
1.0
  0
LINE
  5
587
100
AcDbEntity
  8
0
370
    35
390
0
 62
     5
 48
0.045454
100
AcDbLine
 10
1292.774536
 20
464.890076
 30
0.0
 11
1293.630615
 21
466.49408
 31
0.0
210
0.0
220
0.0
230
1.0
  0
LINE
  5
588
100
AcDbEntity
  8
0
370
    35
390
0
 62
     5
 48
0.038973
100
AcDbLine
 10
1292.036499
 20
463.516907
 30
0.0
 11
1292.774536
 21
464.890076
 31
0.0
210
0.0
220
0.0
230
1.0
  0
LINE
  5
589
100
AcDbEntity
  8
0
370
    35
390
0
 62
     5
 48
0.040522
100
AcDbLine
 10
1291.264771
 20
462.091553
 30
0.0
 11
1292.036499
 21
463.516907
 31
0.0
210
0.0
220
0.0
230
1.0
  0
ARC
  5
58A
100
AcDbEntity
  8
0
370
    35
390
0
 62
     5
100
AcDbCircle
 10
1329.885376
 20
441.108337
 30
0.0
 40
43.952812
210
0.0
220
0.0
230
1.0
100
AcDbArc
 50
151.484102
 51
152.221844
  0
ARC
  5
58B
100
AcDbEntity
  8
0
370
    35
390
0
 62
     5
100
AcDbCircle
 10
1313.265137
 20
449.863159
 30
0.0
 40
25.167711
210
0.0
220
0.0
230
1.0
100
AcDbArc
 50
152.221803
 51
153.341818
  0
ARC
  5
58C
100
AcDbEntity
  8
0
370
    35
390
0
 62
     5
100
AcDbCircle
 10
1338.795654
 20
437.045959
 30
0.0
 40
53.735012
210
0.0
220
0.0
230
1.0
100
AcDbArc
 50
153.341818
 51
153.790561
  0
ARC
  5
58D
100
AcDbEntity
  8
0
370
    35
390
0
 62
     5
100
AcDbCircle
 10
1290.736206
 20
460.703979
 30
0.0
 40
0.168105
210
0.0
220
0.0
230
1.0
100
AcDbArc
 50
153.790561
 51
179.999909
  0
ARC
  5
58E
100
AcDbEntity
  8
0
370
    35
390
0
 62
     5
100
AcDbCircle
 10
1290.611572
 20
460.703979
 30
0.0
 40
0.043443
210
0.0
220
0.0
230
1.0
100
AcDbArc
 50
179.999964
 51
288.253384
  0
LINE
  5
58F
100
AcDbEntity
  8
0
370
    35
390
0
 62
     5
 48
0.133601
100
AcDbLine
 10
1295.700073
 20
462.337158
 30
0.0
 11
1290.625122
 21
460.66272
 31
0.0
210
0.0
220
0.0
230
1.0
  0
LINE
  5
590
100
AcDbEntity
  8
0
370
    35
390
0
 62
     5
 48
0.118341
100
AcDbLine
 10
1300.192261
 20
463.829712
 30
0.0
 11
1295.700073
 21
462.337158
 31
0.0
210
0.0
220
0.0
230
1.0
  0
ARC
  5
591
100
AcDbEntity
  8
0
370
    35
390
0
 62
     5
100
AcDbCircle
 10
1286.519165
 20
504.716003
 30
0.0
 40
43.111977
210
0.0
220
0.0
230
1.0
100
AcDbArc
 50
288.490747
 51
290.993574
  0
ARC
  5
592
100
AcDbEntity
  8
0
370
    35
390
0
 62
     5
100
AcDbCircle
 10
1302.00061
 20
464.372009
 30
0.0
 40
0.100393
210
0.0
220
0.0
230
1.0
100
AcDbArc
 50
342.03481
 51
110.993654
  0
ARC
  5
593
100
AcDbEntity
  8
0
370
    35
390
0
 62
     5
100
AcDbCircle
 10
1294.114136
 20
466.929199
 30
0.0
 40
8.391088
210
0.0
220
0.0
230
1.0
100
AcDbArc
 50
336.18213
 51
342.034892
  0
ARC
  5
594
100
AcDbEntity
  8
0
370
    35
390
0
 62
     5
100
AcDbCircle
 10
1257.049927
 20
483.290161
 30
0.0
 40
48.90564
210
0.0
220
0.0
230
1.0
100
AcDbArc
 50
334.088923
 51
336.182237
  0
LINE
  5
595
100
AcDbEntity
  8
0
370
    35
390
0
 62
     5
 48
0.119759
100
AcDbLine
 10
1298.939941
 20
457.613708
 30
0.0
 11
1301.039307
 21
461.919556
 31
0.0
210
0.0
220
0.0
230
1.0
  0
LINE
  5
596
100
AcDbEntity
  8
0
370
    35
390
0
 62
     5
 48
0.051411
100
AcDbLine
 10
1298.038452
 20
455.765381
 30
0.0
 11
1298.939941
 21
457.613708
 31
0.0
210
0.0
220
0.0
230
1.0
  0
LINE
  5
597
100
AcDbEntity
  8
0
370
    35
390
0
 62
     5
 48
0.046708
100
AcDbLine
 10
1297.224365
 20
454.08374
 30
0.0
 11
1298.038452
 21
455.765381
 31
0.0
210
0.0
220
0.0
230
1.0
  0
LINE
  5
598
100
AcDbEntity
  8
0
370
    35
390
0
 62
     5
 48
0.039174
100
AcDbLine
 10
1296.545654
 20
452.671387
 30
0.0
 11
1297.224365
 21
454.08374
 31
0.0
210
0.0
220
0.0
230
1.0
  0
ARC
  5
599
100
AcDbEntity
  8
0
370
    35
390
0
 62
     5
100
AcDbCircle
 10
1310.986938
 20
445.752747
 30
0.0
 40
16.012983
210
0.0
220
0.0
230
1.0
100
AcDbArc
 50
154.401303
 51
156.37979
  0
LINE
  5
59A
100
AcDbEntity
  8
0
370
    35
390
0
 62
     5
 48
0.020873
100
AcDbLine
 10
1295.980957
 20
451.403687
 30
0.0
 11
1296.31543
 21
452.168701
 31
0.0
210
0.0
220
0.0
230
1.0
  0
LINE
  5
59B
100
AcDbEntity
  8
0
370
    35
390
0
 62
     5
 48
0.045297
100
AcDbLine
 10
1294.169067
 20
451.403687
 30
0.0
 11
1295.980957
 21
451.403687
 31
0.0
210
0.0
220
0.0
230
1.0
  0
LINE
  5
59C
100
AcDbEntity
  8
0
370
    35
390
0
 62
     5
 48
0.045297
100
AcDbLine
 10
1292.357178
 20
451.403687
 30
0.0
 11
1294.169067
 21
451.403687
 31
0.0
210
0.0
220
0.0
230
1.0
  0
LINE
  5
59D
100
AcDbEntity
  8
0
370
    35
390
0
 62
     5
 48
0.062706
100
AcDbLine
 10
1294.005493
 20
449.513123
 30
0.0
 11
1292.357178
 21
451.403687
 31
0.0
210
0.0
220
0.0
230
1.0
  0
LINE
  5
59E
100
AcDbEntity
  8
0
370
    35
390
0
 62
     5
 48
0.062706
100
AcDbLine
 10
1295.653809
 20
447.622559
 30
0.0
 11
1294.005493
 21
449.513123
 31
0.0
210
0.0
220
0.0
230
1.0
  0
LINE
  5
59F
100
AcDbEntity
  8
0
370
    35
390
0
 62
     5
 48
0.016505
100
AcDbLine
 10
1296.215942
 20
447.96875
 30
0.0
 11
1295.653809
 21
447.622559
 31
0.0
210
0.0
220
0.0
230
1.0
  0
LINE
  5
5A0
100
AcDbEntity
  8
0
370
    35
390
0
 62
     5
 48
0.010207
100
AcDbLine
 10
1296.563599
 20
448.1828
 30
0.0
 11
1296.215942
 21
447.96875
 31
0.0
210
0.0
220
0.0
230
1.0
  0
LINE
  5
5A1
100
AcDbEntity
  8
0
370
    35
390
0
 62
     5
 48
0.023007
100
AcDbLine
 10
1297.347412
 20
448.665039
 30
0.0
 11
1296.563599
 21
448.1828
 31
0.0
210
0.0
220
0.0
230
1.0
  0
LINE
  5
5A2
100
AcDbEntity
  8
0
370
    35
390
0
 62
     5
 48
0.027368
100
AcDbLine
 10
1298.279785
 20
449.238708
 30
0.0
 11
1297.347412
 21
448.665039
 31
0.0
210
0.0
220
0.0
230
1.0
  0
LINE
  5
5A3
100
AcDbEntity
  8
0
370
    35
390
0
 62
     5
 48
0.029306
100
AcDbLine
 10
1299.278198
 20
449.852966
 30
0.0
 11
1298.279785
 21
449.238708
 31
0.0
210
0.0
220
0.0
230
1.0
  0
LINE
  5
5A4
100
AcDbEntity
  8
0
370
    35
390
0
 62
     5
 48
0.073384
100
AcDbLine
 10
1301.77832
 20
451.391052
 30
0.0
 11
1299.278198
 21
449.852966
 31
0.0
210
0.0
220
0.0
230
1.0
  0
LINE
  5
5A5
100
AcDbEntity
  8
0
370
    35
390
0
 62
     5
 48
0.047362
100
AcDbLine
 10
1299.884521
 20
451.442383
 30
0.0
 11
1301.77832
 21
451.391052
 31
0.0
210
0.0
220
0.0
230
1.0
  0
LINE
  5
5A6
100
AcDbEntity
  8
0
370
    35
390
0
 62
     5
 48
0.047362
100
AcDbLine
 10
1297.990723
 20
451.493713
 30
0.0
 11
1299.884521
 21
451.442383
 31
0.0
210
0.0
220
0.0
230
1.0
  0
LINE
  5
5A7
100
AcDbEntity
  8
0
370
    35
390
0
 62
     5
 48
0.270739
100
AcDbLine
 10
1303.437744
 20
460.853699
 30
0.0
 11
1297.990723
 21
451.493713
 31
0.0
210
0.0
220
0.0
230
1.0
  0
LINE
  5
5A8
100
AcDbEntity
  8
0
370
    35
390
0
 62
     5
 48
0.103852
100
AcDbLine
 10
1305.523438
 20
464.446228
 30
0.0
 11
1303.437744
 21
460.853699
 31
0.0
210
0.0
220
0.0
230
1.0
  0
LINE
  5
5A9
100
AcDbEntity
  8
0
370
    35
390
0
 62
     5
 48
0.087511
100
AcDbLine
 10
1307.272583
 20
467.478333
 30
0.0
 11
1305.523438
 21
464.446228
 31
0.0
210
0.0
220
0.0
230
1.0
  0
LINE
  5
5AA
100
AcDbEntity
  8
0
370
    35
390
0
 62
     5
 48
0.079036
100
AcDbLine
 10
1308.847412
 20
470.219604
 30
0.0
 11
1307.272583
 21
467.478333
 31
0.0
210
0.0
220
0.0
230
1.0
  0
ARC
  5
5AB
100
AcDbEntity
  8
0
370
    35
390
0
 62
     5
100
AcDbCircle
 10
1308.815552
 20
470.237854
 30
0.0
 40
0.036681
210
0.0
220
0.0
230
1.0
100
AcDbArc
 50
330.127085
 51
40.777558
  0
ARC
  5
5AC
100
AcDbEntity
  8
0
370
    35
390
0
 62
     5
100
AcDbCircle
 10
1308.817505
 20
470.239502
 30
0.0
 40
0.034215
210
0.0
220
0.0
230
1.0
100
AcDbArc
 50
40.777643
 51
111.55233
  0
ARC
  5
5AD
100
AcDbEntity
  8
0
370
    35
390
0
 62
     5
100
AcDbCircle
 10
1323.322754
 20
433.513855
 30
0.0
 40
39.520611
210
0.0
220
0.0
230
1.0
100
AcDbArc
 50
111.552227
 51
112.066288
  0
ARC
  5
5AE
100
AcDbEntity
  8
0
370
    35
390
0
 62
     5
100
AcDbCircle
 10
1313.759155
 20
457.10614
 30
0.0
 40
14.063622
210
0.0
220
0.0
230
1.0
100
AcDbArc
 50
112.066261
 51
113.751869
  0
ARC
  5
5AF
100
AcDbEntity
  8
0
370
    35
390
0
 62
     5
100
AcDbCircle
 10
1318.986328
 20
445.227539
 30
0.0
 40
27.041471
210
0.0
220
0.0
230
1.0
100
AcDbArc
 50
113.751917
 51
114.785291
  0
ARC
  5
5B0
100
AcDbEntity
  8
0
370
    35
390
0
 62
     5
100
AcDbCircle
 10
1154.538696
 20
801.364258
 30
0.0
 40
365.229309
210
0.0
220
0.0
230
1.0
100
AcDbArc
 50
294.172044
 51
294.785306
  0
ARC
  5
5B1
100
AcDbEntity
  8
0
370
    35
390
0
 62
     5
100
AcDbCircle
 10
995.105957
 20
1156.584351
 30
0.0
 40
754.587891
210
0.0
220
0.0
230
1.0
100
AcDbArc
 50
293.815583
 51
294.171962
  0
LINE
  5
5B2
100
AcDbEntity
  8
0
370
    35
390
0
 62
     5
 48
0.125104
100
AcDbLine
 10
1295.225708
 20
464.229675
 30
0.0
 11
1299.804077
 21
466.249634
 31
0.0
210
0.0
220
0.0
230
1.0
  0
ARC
  5
5B3
100
AcDbEntity
  8
0
370
    35
390
0
 62
     5
100
AcDbCircle
 10
1295.188354
 20
464.314331
 30
0.0
 40
0.092541
210
0.0
220
0.0
230
1.0
100
AcDbArc
 50
224.999986
 51
293.798371
  0
ARC
  5
5B4
100
AcDbEntity
  8
0
370
    35
390
0
 62
     5
100
AcDbCircle
 10
1295.238525
 20
464.364502
 30
0.0
 40
0.163496
210
0.0
220
0.0
230
1.0
100
AcDbArc
 50
143.331697
 51
225.000013
  0
LINE
  5
5B5
100
AcDbEntity
  8
0
370
    35
390
0
 62
     5
 48
0.205979
100
AcDbLine
 10
1300.029541
 20
471.069458
 30
0.0
 11
1295.107422
 21
464.462158
 31
0.0
210
0.0
220
0.0
230
1.0
  0
LINE
  5
5B6
100
AcDbEntity
  8
0
370
    35
390
0
 62
     5
 48
0.204345
100
AcDbLine
 10
1304.91748
 20
477.620728
 30
0.0
 11
1300.029541
 21
471.069458
 31
0.0
210
0.0
220
0.0
230
1.0
  0
ARC
  5
5B7
100
AcDbEntity
  8
0
370
    35
390
0
 62
     5
100
AcDbCircle
 10
1305.36792
 20
477.284424
 30
0.0
 40
0.562101
210
0.0
220
0.0
230
1.0
100
AcDbArc
 50
102.166919
 51
143.24826
  0
ARC
  5
5B8
100
AcDbEntity
  8
0
370
    35
390
0
 62
     5
100
AcDbCircle
 10
1305.401611
 20
477.127808
 30
0.0
 40
0.722268
210
0.0
220
0.0
230
1.0
100
AcDbArc
 50
66.478033
 51
102.166871
  0
ARC
  5
5B9
100
AcDbEntity
  8
0
370
    35
390
0
 62
     5
100
AcDbCircle
 10
1291.892944
 20
446.092529
 30
0.0
 40
34.570068
210
0.0
220
0.0
230
1.0
100
AcDbArc
 50
64.266001
 51
66.478006
  0
ARC
  5
5BA
100
AcDbEntity
  8
0
370
    35
390
0
 62
     5
100
AcDbCircle
 10
1296.495605
 20
455.641724
 30
0.0
 40
23.969505
210
0.0
220
0.0
230
1.0
100
AcDbArc
 50
60.7877
 51
64.265974
  0
ARC
  5
5BB
100
AcDbEntity
  8
0
370
    35
390
0
 62
     5
100
AcDbCircle
 10
1300.162598
 20
462.199585
 30
0.0
 40
16.456097
210
0.0
220
0.0
230
1.0
100
AcDbArc
 50
56.176967
 51
60.787741
  0
ARC
  5
5BC
100
AcDbEntity
  8
0
370
    35
390
0
 62
     5
100
AcDbCircle
 10
1302.704468
 20
465.993408
 30
0.0
 40
11.889428
210
0.0
220
0.0
230
1.0
100
AcDbArc
 50
48.018941
 51
56.176933
  0
ARC
  5
5BD
100
AcDbEntity
  8
0
370
    35
390
0
 62
     5
100
AcDbCircle
 10
1294.048828
 20
456.373962
 30
0.0
 40
24.829821
210
0.0
220
0.0
230
1.0
100
AcDbArc
 50
43.315844
 51
48.018938
  0
ARC
  5
5BE
100
AcDbEntity
  8
0
370
    35
390
0
 62
     5
100
AcDbCircle
 10
1294.036987
 20
456.362671
 30
0.0
 40
24.846182
210
0.0
220
0.0
230
1.0
100
AcDbArc
 50
38.613501
 51
43.315909
  0
ARC
  5
5BF
100
AcDbEntity
  8
0
370
    35
390
0
 62
     5
100
AcDbCircle
 10
1304.099976
 20
464.399719
 30
0.0
 40
11.967655
210
0.0
220
0.0
230
1.0
100
AcDbArc
 50
30.492393
 51
38.613532
  0
ARC
  5
5C0
100
AcDbEntity
  8
0
370
    35
390
0
 62
     5
100
AcDbCircle
 10
1299.527466
 20
461.707153
 30
0.0
 40
17.273968
210
0.0
220
0.0
230
1.0
100
AcDbArc
 50
16.693469
 51
30.492386
  0
ARC
  5
5C1
100
AcDbEntity
  8
0
370
    35
390
0
 62
     5
100
AcDbCircle
 10
1299.477661
 20
461.6922
 30
0.0
 40
17.325975
210
0.0
220
0.0
230
1.0
100
AcDbArc
 50
2.925619
 51
16.693481
  0
ARC
  5
5C2
100
AcDbEntity
  8
0
370
    35
390
0
 62
     5
100
AcDbCircle
 10
1299.570923
 20
461.69696
 30
0.0
 40
17.232594
210
0.0
220
0.0
230
1.0
100
AcDbArc
 50
349.118563
 51
2.925689
  0
ARC
  5
5C3
100
AcDbEntity
  8
0
370
    35
390
0
 62
     5
100
AcDbCircle
 10
1299.922363
 20
461.629395
 30
0.0
 40
16.874722
210
0.0
220
0.0
230
1.0
100
AcDbArc
 50
335.09244
 51
349.118563
  0
ARC
  5
5C4
100
AcDbEntity
  8
0
370
    35
390
0
 62
     5
100
AcDbCircle
 10
1297.959229
 20
462.541016
 30
0.0
 40
19.039236
210
0.0
220
0.0
230
1.0
100
AcDbArc
 50
326.111149
 51
335.092359
  0
ARC
  5
5C5
100
AcDbEntity
  8
0
370
    35
390
0
 62
     5
100
AcDbCircle
 10
1300.851685
 20
460.598145
 30
0.0
 40
15.554747
210
0.0
220
0.0
230
1.0
100
AcDbArc
 50
315.660034
 51
326.111098
  0
ARC
  5
5C6
100
AcDbEntity
  8
0
370
    35
390
0
 62
     5
100
AcDbCircle
 10
1300.847534
 20
460.602173
 30
0.0
 40
15.560564
210
0.0
220
0.0
230
1.0
100
AcDbArc
 50
305.211074
 51
315.660089
  0
ARC
  5
5C7
100
AcDbEntity
  8
0
370
    35
390
0
 62
     5
100
AcDbCircle
 10
1298.823853
 20
463.469849
 30
0.0
 40
19.070393
210
0.0
220
0.0
230
1.0
100
AcDbArc
 50
296.24017
 51
305.211074
  0
ARC
  5
5C8
100
AcDbEntity
  8
0
370
    35
390
0
 62
     5
100
AcDbCircle
 10
1295.122803
 20
470.978088
 30
0.0
 40
27.441259
210
0.0
220
0.0
230
1.0
100
AcDbArc
 50
291.750298
 51
296.240109
  0
ARC
  5
5C9
100
AcDbEntity
  8
0
370
    35
390
0
 62
     5
100
AcDbCircle
 10
1301.430054
 20
455.169128
 30
0.0
 40
10.420556
210
0.0
220
0.0
230
1.0
100
AcDbArc
 50
282.499954
 51
291.750243
  0
ARC
  5
5CA
100
AcDbEntity
  8
0
370
    35
390
0
 62
     5
100
AcDbCircle
 10
1301.257568
 20
455.947266
 30
0.0
 40
11.217576
210
0.0
220
0.0
230
1.0
100
AcDbArc
 50
273.663766
 51
282.499899
  0
ARC
  5
5CB
100
AcDbEntity
  8
0
370
    35
390
0
 62
     5
100
AcDbCircle
 10
1299.7146
 20
480.043884
 30
0.0
 40
35.363567
210
0.0
220
0.0
230
1.0
100
AcDbArc
 50
269.908473
 51
273.663766
  0
ARC
  5
5CC
100
AcDbEntity
  8
0
370
    35
390
0
 62
     5
100
AcDbCircle
 10
1299.715332
 20
480.503418
 30
0.0
 40
35.823055
210
0.0
220
0.0
230
1.0
100
AcDbArc
 50
266.193533
 51
269.9085
  0
ARC
  5
5CD
100
AcDbEntity
  8
0
370
    35
390
0
 62
     5
100
AcDbCircle
 10
1298.101074
 20
456.241455
 30
0.0
 40
11.507488
210
0.0
220
0.0
230
1.0
100
AcDbArc
 50
257.533208
 51
266.19356
  0
ARC
  5
5CE
100
AcDbEntity
  8
0
370
    35
390
0
 62
     5
100
AcDbCircle
 10
1297.869751
 20
455.194885
 30
0.0
 40
10.435652
210
0.0
220
0.0
230
1.0
100
AcDbArc
 50
248.333196
 51
257.533161
  0
ARC
  5
5CF
100
AcDbEntity
  8
0
370
    35
390
0
 62
     5
100
AcDbCircle
 10
1303.442749
 20
469.222961
 30
0.0
 40
25.530169
210
0.0
220
0.0
230
1.0
100
AcDbArc
 50
243.617497
 51
248.333196
  0
ARC
  5
5D0
100
AcDbEntity
  8
0
370
    35
390
0
 62
     5
100
AcDbCircle
 10
1299.953857
 20
462.18927
 30
0.0
 40
17.67874
210
0.0
220
0.0
230
1.0
100
AcDbArc
 50
231.592293
 51
243.61747
  0
ARC
  5
5D1
100
AcDbEntity
  8
0
370
    35
390
0
 62
     5
100
AcDbCircle
 10
1299.445313
 20
461.547729
 30
0.0
 40
16.860044
210
0.0
220
0.0
230
1.0
100
AcDbArc
 50
219.131706
 51
231.592239
  0
ARC
  5
5D2
100
AcDbEntity
  8
0
370
    35
390
0
 62
     5
100
AcDbCircle
 10
1299.417114
 20
461.524841
 30
0.0
 40
16.823822
210
0.0
220
0.0
230
1.0
100
AcDbArc
 50
206.656994
 51
219.131692
  0
ARC
  5
5D3
100
AcDbEntity
  8
0
370
    35
390
0
 62
     5
100
AcDbCircle
 10
1300.033813
 20
461.834412
 30
0.0
 40
17.513855
210
0.0
220
0.0
230
1.0
100
AcDbArc
 50
194.552724
 51
206.656994
  0
ARC
  5
5D4
100
AcDbEntity
  8
0
370
    35
390
0
 62
     5
100
AcDbCircle
 10
1302.612549
 20
462.503845
 30
0.0
 40
20.178015
210
0.0
220
0.0
230
1.0
100
AcDbArc
 50
191.592738
 51
194.552697
  0
ARC
  5
5D5
100
AcDbEntity
  8
0
370
    35
390
0
 62
     5
100
AcDbCircle
 10
1293.20105
 20
460.573181
 30
0.0
 40
10.570497
210
0.0
220
0.0
230
1.0
100
AcDbArc
 50
186.79061
 51
191.59267
  0
ARC
  5
5D6
100
AcDbEntity
  8
0
370
    35
390
0
 62
     5
100
AcDbCircle
 10
1294.889282
 20
460.774231
 30
0.0
 40
12.270716
210
0.0
220
0.0
230
1.0
100
AcDbArc
 50
182.401571
 51
186.790583
  0
ARC
  5
5D7
100
AcDbEntity
  8
0
370
    35
390
0
 62
     5
100
AcDbCircle
 10
1317.31665
 20
461.714783
 30
0.0
 40
34.717758
210
0.0
220
0.0
230
1.0
100
AcDbArc
 50
180.381393
 51
182.401585
  0
ARC
  5
5D8
100
AcDbEntity
  8
0
370
    35
390
0
 62
     5
100
AcDbCircle
 10
1308.749146
 20
461.657776
 30
0.0
 40
26.15004
210
0.0
220
0.0
230
1.0
100
AcDbArc
 50
178.320216
 51
180.381434
  0
ARC
  5
5D9
100
AcDbEntity
  8
0
370
    35
390
0
 62
     5
100
AcDbCircle
 10
1311.759155
 20
461.569519
 30
0.0
 40
29.161419
210
0.0
220
0.0
230
1.0
100
AcDbArc
 50
176.420836
 51
178.320257
  0
ARC
  5
5DA
100
AcDbEntity
  8
0
370
    35
390
0
 62
     5
100
AcDbCircle
 10
1308.534546
 20
461.771301
 30
0.0
 40
25.93049
210
0.0
220
0.0
230
1.0
100
AcDbArc
 50
174.516429
 51
176.42089
  0
ARC
  5
5DB
100
AcDbEntity
  8
0
370
    35
390
0
 62
     5
100
AcDbCircle
 10
1287.979736
 20
463.744568
 30
0.0
 40
5.281208
210
0.0
220
0.0
230
1.0
100
AcDbArc
 50
168.319808
 51
174.516552
  0
ARC
  5
5DC
100
AcDbEntity
  8
0
370
    35
390
0
 62
     5
100
AcDbCircle
 10
1301.469482
 20
460.955872
 30
0.0
 40
19.056112
210
0.0
220
0.0
230
1.0
100
AcDbArc
 50
152.976116
 51
168.319876
  0
ARC
  5
5DD
100
AcDbEntity
  8
0
370
    35
390
0
 62
     5
100
AcDbCircle
 10
1299.45813
 20
461.981689
 30
0.0
 40
16.798307
210
0.0
220
0.0
230
1.0
100
AcDbArc
 50
136.110534
 51
152.976102
  0
ARC
  5
5DE
100
AcDbEntity
  8
0
370
    35
390
0
 62
     5
100
AcDbCircle
 10
1299.252197
 20
462.179871
 30
0.0
 40
16.512478
210
0.0
220
0.0
230
1.0
100
AcDbArc
 50
119.084908
 51
136.11048
  0
ARC
  5
5DF
100
AcDbEntity
  8
0
370
    35
390
0
 62
     5
100
AcDbCircle
 10
1299.892212
 20
461.029236
 30
0.0
 40
17.829153
210
0.0
220
0.0
230
1.0
100
AcDbArc
 50
103.011219
 51
119.084922
  0
ARC
  5
5E0
100
AcDbEntity
  8
0
370
    35
390
0
 62
     5
100
AcDbCircle
 10
1235.866333
 20
467.521423
 30
0.0
 40
11.165875
210
0.0
220
0.0
230
1.0
100
AcDbArc
 50
96.754274
 51
103.011253
  0
ARC
  5
5E1
100
AcDbEntity
  8
0
370
    35
390
0
 62
     5
100
AcDbCircle
 10
1237.235596
 20
455.960449
 30
0.0
 40
22.807613
210
0.0
220
0.0
230
1.0
100
AcDbArc
 50
93.087166
 51
96.75424
  0
ARC
  5
5E2
100
AcDbEntity
  8
0
370
    35
390
0
 62
     5
100
AcDbCircle
 10
1238.665039
 20
429.454285
 30
0.0
 40
49.352291
210
0.0
220
0.0
230
1.0
100
AcDbArc
 50
91.44984
 51
93.087091
  0
ARC
  5
5E3
100
AcDbEntity
  8
0
370
    35
390
0
 62
     5
100
AcDbCircle
 10
1237.42041
 20
478.629517
 30
0.0
 40
0.161339
210
0.0
220
0.0
230
1.0
100
AcDbArc
 50
359.714426
 51
91.44984
  0
ARC
  5
5E4
100
AcDbEntity
  8
0
370
    35
390
0
 62
     5
100
AcDbCircle
 10
1237.377686
 20
478.6297
 30
0.0
 40
0.204066
210
0.0
220
0.0
230
1.0
100
AcDbArc
 50
336.521399
 51
359.714535
  0
ARC
  5
5E5
100
AcDbEntity
  8
0
370
    35
390
0
 62
     5
100
AcDbCircle
 10
1233.53772
 20
480.297668
 30
0.0
 40
4.390641
210
0.0
220
0.0
230
1.0
100
AcDbArc
 50
334.025839
 51
336.521317
  0
ARC
  5
5E6
100
AcDbEntity
  8
0
370
    35
390
0
 62
     5
100
AcDbCircle
 10
1233.514648
 20
480.30896
 30
0.0
 40
4.416378
210
0.0
220
0.0
230
1.0
100
AcDbArc
 50
331.037194
 51
334.025812
  0
ARC
  5
5E7
100
AcDbEntity
  8
0
370
    35
390
0
 62
     5
100
AcDbCircle
 10
1231.977783
 20
481.159546
 30
0.0
 40
6.172927
210
0.0
220
0.0
230
1.0
100
AcDbArc
 50
328.712006
 51
331.037221
  0
ARC
  5
5E8
100
AcDbEntity
  8
0
370
    35
390
0
 62
     5
100
AcDbCircle
 10
1244.488647
 20
473.556396
 30
0.0
 40
8.467127
210
0.0
220
0.0
230
1.0
100
AcDbArc
 50
148.711947
 51
151.320396
  0
ARC
  5
5E9
100
AcDbEntity
  8
0
370
    35
390
0
 62
     5
100
AcDbCircle
 10
1366.061157
 20
407.05365
 30
0.0
 40
147.0401
210
0.0
220
0.0
230
1.0
100
AcDbArc
 50
151.320396
 51
151.646291
  0
ARC
  5
5EA
100
AcDbEntity
  8
0
370
    35
390
0
 62
     5
100
AcDbCircle
 10
1367.209595
 20
406.43396
 30
0.0
 40
148.345062
210
0.0
220
0.0
230
1.0
100
AcDbArc
 50
151.646332
 51
152.029984
  0
ARC
  5
5EB
100
AcDbEntity
  8
0
370
    35
390
0
 62
     5
100
AcDbCircle
 10
1404.56897
 20
386.594788
 30
0.0
 40
190.645416
210
0.0
220
0.0
230
1.0
100
AcDbArc
 50
152.030012
 51
152.347889
  0
LINE
  5
5EC
100
AcDbEntity
  8
0
370
    35
390
0
 62
     5
 48
0.026431
100
AcDbLine
 10
1235.206299
 20
474.138184
 30
0.0
 11
1235.69873
 21
475.07373
 31
0.0
210
0.0
220
0.0
230
1.0
  0
ARC
  5
5ED
100
AcDbEntity
  8
0
370
    35
390
0
 62
     5
100
AcDbCircle
 10
1045.423462
 20
574.498535
 30
0.0
 40
214.68512
210
0.0
220
0.0
230
1.0
100
AcDbArc
 50
331.864658
 51
332.129369
  0
LINE
  5
5EE
100
AcDbEntity
  8
0
370
    35
390
0
 62
     5
 48
0.020873
100
AcDbLine
 10
1234.345459
 20
472.526978
 30
0.0
 11
1234.740601
 21
473.262451
 31
0.0
210
0.0
220
0.0
230
1.0
  0
ARC
  5
5EF
100
AcDbEntity
  8
0
370
    35
390
0
 62
     5
100
AcDbCircle
 10
1223.761353
 20
478.23999
 30
0.0
 40
12.027539
210
0.0
220
0.0
230
1.0
100
AcDbArc
 50
329.820874
 51
331.64101
  0
ARC
  5
5F0
100
AcDbEntity
  8
0
370
    35
390
0
 62
     5
100
AcDbCircle
 10
1245.68689
 20
465.489746
 30
0.0
 40
13.335777
210
0.0
220
0.0
230
1.0
100
AcDbArc
 50
149.820882
 51
151.547978
  0
LINE
  5
5F1
100
AcDbEntity
  8
0
370
    35
390
0
 62
     5
 48
0.025668
100
AcDbLine
 10
1233.473877
 20
470.93988
 30
0.0
 11
1233.961914
 21
471.843201
 31
0.0
210
0.0
220
0.0
230
1.0
  0
LINE
  5
5F2
100
AcDbEntity
  8
0
370
    35
390
0
 62
     5
 48
0.030618
100
AcDbLine
 10
1232.89502
 20
469.860596
 30
0.0
 11
1233.473877
 21
470.93988
 31
0.0
210
0.0
220
0.0
230
1.0
  0
LINE
  5
5F3
100
AcDbEntity
  8
0
370
    35
390
0
 62
     5
 48
0.033331
100
AcDbLine
 10
1232.268555
 20
468.683716
 30
0.0
 11
1232.89502
 21
469.860596
 31
0.0
210
0.0
220
0.0
230
1.0
  0
LINE
  5
5F4
100
AcDbEntity
  8
0
370
    35
390
0
 62
     5
 48
0.06199
100
AcDbLine
 10
1231.10498
 20
466.49408
 30
0.0
 11
1232.268555
 21
468.683716
 31
0.0
210
0.0
220
0.0
230
1.0
  0
LINE
  5
5F5
100
AcDbEntity
  8
0
370
    35
390
0
 62
     5
 48
0.045454
100
AcDbLine
 10
1230.248901
 20
464.890076
 30
0.0
 11
1231.10498
 21
466.49408
 31
0.0
210
0.0
220
0.0
230
1.0
  0
LINE
  5
5F6
100
AcDbEntity
  8
0
370
    35
390
0
 62
     5
 48
0.038973
100
AcDbLine
 10
1229.510864
 20
463.516907
 30
0.0
 11
1230.248901
 21
464.890076
 31
0.0
210
0.0
220
0.0
230
1.0
  0
LINE
  5
5F7
100
AcDbEntity
  8
0
370
    35
390
0
 62
     5
 48
0.040522
100
AcDbLine
 10
1228.739136
 20
462.091553
 30
0.0
 11
1229.510864
 21
463.516907
 31
0.0
210
0.0
220
0.0
230
1.0
  0
ARC
  5
5F8
100
AcDbEntity
  8
0
370
    35
390
0
 62
     5
100
AcDbCircle
 10
1267.359741
 20
441.108337
 30
0.0
 40
43.952812
210
0.0
220
0.0
230
1.0
100
AcDbArc
 50
151.484102
 51
152.221844
  0
ARC
  5
5F9
100
AcDbEntity
  8
0
370
    35
390
0
 62
     5
100
AcDbCircle
 10
1250.739502
 20
449.863159
 30
0.0
 40
25.167711
210
0.0
220
0.0
230
1.0
100
AcDbArc
 50
152.221803
 51
153.341818
  0
ARC
  5
5FA
100
AcDbEntity
  8
0
370
    35
390
0
 62
     5
100
AcDbCircle
 10
1276.27002
 20
437.045959
 30
0.0
 40
53.735012
210
0.0
220
0.0
230
1.0
100
AcDbArc
 50
153.341818
 51
153.790561
  0
ARC
  5
5FB
100
AcDbEntity
  8
0
370
    35
390
0
 62
     5
100
AcDbCircle
 10
1228.210571
 20
460.703979
 30
0.0
 40
0.168105
210
0.0
220
0.0
230
1.0
100
AcDbArc
 50
153.790561
 51
179.999909
  0
ARC
  5
5FC
100
AcDbEntity
  8
0
370
    35
390
0
 62
     5
100
AcDbCircle
 10
1228.085938
 20
460.703979
 30
0.0
 40
0.043443
210
0.0
220
0.0
230
1.0
100
AcDbArc
 50
179.999964
 51
288.253384
  0
LINE
  5
5FD
100
AcDbEntity
  8
0
370
    35
390
0
 62
     5
 48
0.133601
100
AcDbLine
 10
1233.174438
 20
462.337158
 30
0.0
 11
1228.099487
 21
460.66272
 31
0.0
210
0.0
220
0.0
230
1.0
  0
LINE
  5
5FE
100
AcDbEntity
  8
0
370
    35
390
0
 62
     5
 48
0.118341
100
AcDbLine
 10
1237.666626
 20
463.829712
 30
0.0
 11
1233.174438
 21
462.337158
 31
0.0
210
0.0
220
0.0
230
1.0
  0
ARC
  5
5FF
100
AcDbEntity
  8
0
370
    35
390
0
 62
     5
100
AcDbCircle
 10
1223.99353
 20
504.716003
 30
0.0
 40
43.111977
210
0.0
220
0.0
230
1.0
100
AcDbArc
 50
288.490747
 51
290.993574
  0
ARC
  5
600
100
AcDbEntity
  8
0
370
    35
390
0
 62
     5
100
AcDbCircle
 10
1239.474976
 20
464.372009
 30
0.0
 40
0.100393
210
0.0
220
0.0
230
1.0
100
AcDbArc
 50
342.03481
 51
110.993654
  0
ARC
  5
601
100
AcDbEntity
  8
0
370
    35
390
0
 62
     5
100
AcDbCircle
 10
1231.588501
 20
466.929199
 30
0.0
 40
8.391088
210
0.0
220
0.0
230
1.0
100
AcDbArc
 50
336.18213
 51
342.034892
  0
ARC
  5
602
100
AcDbEntity
  8
0
370
    35
390
0
 62
     5
100
AcDbCircle
 10
1194.524292
 20
483.290161
 30
0.0
 40
48.90564
210
0.0
220
0.0
230
1.0
100
AcDbArc
 50
334.088923
 51
336.182237
  0
LINE
  5
603
100
AcDbEntity
  8
0
370
    35
390
0
 62
     5
 48
0.119759
100
AcDbLine
 10
1236.414307
 20
457.613708
 30
0.0
 11
1238.513672
 21
461.919556
 31
0.0
210
0.0
220
0.0
230
1.0
  0
LINE
  5
604
100
AcDbEntity
  8
0
370
    35
390
0
 62
     5
 48
0.051411
100
AcDbLine
 10
1235.512817
 20
455.765381
 30
0.0
 11
1236.414307
 21
457.613708
 31
0.0
210
0.0
220
0.0
230
1.0
  0
LINE
  5
605
100
AcDbEntity
  8
0
370
    35
390
0
 62
     5
 48
0.046708
100
AcDbLine
 10
1234.69873
 20
454.08374
 30
0.0
 11
1235.512817
 21
455.765381
 31
0.0
210
0.0
220
0.0
230
1.0
  0
LINE
  5
606
100
AcDbEntity
  8
0
370
    35
390
0
 62
     5
 48
0.039174
100
AcDbLine
 10
1234.02002
 20
452.671387
 30
0.0
 11
1234.69873
 21
454.08374
 31
0.0
210
0.0
220
0.0
230
1.0
  0
ARC
  5
607
100
AcDbEntity
  8
0
370
    35
390
0
 62
     5
100
AcDbCircle
 10
1248.461304
 20
445.752747
 30
0.0
 40
16.012983
210
0.0
220
0.0
230
1.0
100
AcDbArc
 50
154.401303
 51
156.37979
  0
LINE
  5
608
100
AcDbEntity
  8
0
370
    35
390
0
 62
     5
 48
0.020873
100
AcDbLine
 10
1233.455322
 20
451.403687
 30
0.0
 11
1233.789795
 21
452.168701
 31
0.0
210
0.0
220
0.0
230
1.0
  0
LINE
  5
609
100
AcDbEntity
  8
0
370
    35
390
0
 62
     5
 48
0.045297
100
AcDbLine
 10
1231.643433
 20
451.403687
 30
0.0
 11
1233.455322
 21
451.403687
 31
0.0
210
0.0
220
0.0
230
1.0
  0
LINE
  5
60A
100
AcDbEntity
  8
0
370
    35
390
0
 62
     5
 48
0.045297
100
AcDbLine
 10
1229.831543
 20
451.403687
 30
0.0
 11
1231.643433
 21
451.403687
 31
0.0
210
0.0
220
0.0
230
1.0
  0
LINE
  5
60B
100
AcDbEntity
  8
0
370
    35
390
0
 62
     5
 48
0.062706
100
AcDbLine
 10
1231.479858
 20
449.513123
 30
0.0
 11
1229.831543
 21
451.403687
 31
0.0
210
0.0
220
0.0
230
1.0
  0
LINE
  5
60C
100
AcDbEntity
  8
0
370
    35
390
0
 62
     5
 48
0.062706
100
AcDbLine
 10
1233.128174
 20
447.622559
 30
0.0
 11
1231.479858
 21
449.513123
 31
0.0
210
0.0
220
0.0
230
1.0
  0
LINE
  5
60D
100
AcDbEntity
  8
0
370
    35
390
0
 62
     5
 48
0.016505
100
AcDbLine
 10
1233.690308
 20
447.96875
 30
0.0
 11
1233.128174
 21
447.622559
 31
0.0
210
0.0
220
0.0
230
1.0
  0
LINE
  5
60E
100
AcDbEntity
  8
0
370
    35
390
0
 62
     5
 48
0.010207
100
AcDbLine
 10
1234.037964
 20
448.1828
 30
0.0
 11
1233.690308
 21
447.96875
 31
0.0
210
0.0
220
0.0
230
1.0
  0
LINE
  5
60F
100
AcDbEntity
  8
0
370
    35
390
0
 62
     5
 48
0.023007
100
AcDbLine
 10
1234.821777
 20
448.665039
 30
0.0
 11
1234.037964
 21
448.1828
 31
0.0
210
0.0
220
0.0
230
1.0
  0
LINE
  5
610
100
AcDbEntity
  8
0
370
    35
390
0
 62
     5
 48
0.027368
100
AcDbLine
 10
1235.75415
 20
449.238708
 30
0.0
 11
1234.821777
 21
448.665039
 31
0.0
210
0.0
220
0.0
230
1.0
  0
LINE
  5
611
100
AcDbEntity
  8
0
370
    35
390
0
 62
     5
 48
0.029306
100
AcDbLine
 10
1236.752563
 20
449.852966
 30
0.0
 11
1235.75415
 21
449.238708
 31
0.0
210
0.0
220
0.0
230
1.0
  0
LINE
  5
612
100
AcDbEntity
  8
0
370
    35
390
0
 62
     5
 48
0.073384
100
AcDbLine
 10
1239.252686
 20
451.391052
 30
0.0
 11
1236.752563
 21
449.852966
 31
0.0
210
0.0
220
0.0
230
1.0
  0
LINE
  5
613
100
AcDbEntity
  8
0
370
    35
390
0
 62
     5
 48
0.047362
100
AcDbLine
 10
1237.358887
 20
451.442383
 30
0.0
 11
1239.252686
 21
451.391052
 31
0.0
210
0.0
220
0.0
230
1.0
  0
LINE
  5
614
100
AcDbEntity
  8
0
370
    35
390
0
 62
     5
 48
0.047362
100
AcDbLine
 10
1235.465088
 20
451.493713
 30
0.0
 11
1237.358887
 21
451.442383
 31
0.0
210
0.0
220
0.0
230
1.0
  0
LINE
  5
615
100
AcDbEntity
  8
0
370
    35
390
0
 62
     5
 48
0.270739
100
AcDbLine
 10
1240.912109
 20
460.853699
 30
0.0
 11
1235.465088
 21
451.493713
 31
0.0
210
0.0
220
0.0
230
1.0
  0
LINE
  5
616
100
AcDbEntity
  8
0
370
    35
390
0
 62
     5
 48
0.103852
100
AcDbLine
 10
1242.997803
 20
464.446228
 30
0.0
 11
1240.912109
 21
460.853699
 31
0.0
210
0.0
220
0.0
230
1.0
  0
LINE
  5
617
100
AcDbEntity
  8
0
370
    35
390
0
 62
     5
 48
0.087511
100
AcDbLine
 10
1244.746948
 20
467.478333
 30
0.0
 11
1242.997803
 21
464.446228
 31
0.0
210
0.0
220
0.0
230
1.0
  0
LINE
  5
618
100
AcDbEntity
  8
0
370
    35
390
0
 62
     5
 48
0.079036
100
AcDbLine
 10
1246.321777
 20
470.219604
 30
0.0
 11
1244.746948
 21
467.478333
 31
0.0
210
0.0
220
0.0
230
1.0
  0
ARC
  5
619
100
AcDbEntity
  8
0
370
    35
390
0
 62
     5
100
AcDbCircle
 10
1246.289917
 20
470.237854
 30
0.0
 40
0.036681
210
0.0
220
0.0
230
1.0
100
AcDbArc
 50
330.127085
 51
40.777558
  0
ARC
  5
61A
100
AcDbEntity
  8
0
370
    35
390
0
 62
     5
100
AcDbCircle
 10
1246.29187
 20
470.239502
 30
0.0
 40
0.034215
210
0.0
220
0.0
230
1.0
100
AcDbArc
 50
40.777643
 51
111.55233
  0
ARC
  5
61B
100
AcDbEntity
  8
0
370
    35
390
0
 62
     5
100
AcDbCircle
 10
1260.797119
 20
433.513855
 30
0.0
 40
39.520611
210
0.0
220
0.0
230
1.0
100
AcDbArc
 50
111.552227
 51
112.066288
  0
ARC
  5
61C
100
AcDbEntity
  8
0
370
    35
390
0
 62
     5
100
AcDbCircle
 10
1251.233521
 20
457.10614
 30
0.0
 40
14.063622
210
0.0
220
0.0
230
1.0
100
AcDbArc
 50
112.066261
 51
113.751869
  0
ARC
  5
61D
100
AcDbEntity
  8
0
370
    35
390
0
 62
     5
100
AcDbCircle
 10
1256.460693
 20
445.227539
 30
0.0
 40
27.041471
210
0.0
220
0.0
230
1.0
100
AcDbArc
 50
113.751917
 51
114.785291
  0
ARC
  5
61E
100
AcDbEntity
  8
0
370
    35
390
0
 62
     5
100
AcDbCircle
 10
1092.013062
 20
801.364258
 30
0.0
 40
365.229309
210
0.0
220
0.0
230
1.0
100
AcDbArc
 50
294.172044
 51
294.785306
  0
ARC
  5
61F
100
AcDbEntity
  8
0
370
    35
390
0
 62
     5
100
AcDbCircle
 10
932.580322
 20
1156.584351
 30
0.0
 40
754.587891
210
0.0
220
0.0
230
1.0
100
AcDbArc
 50
293.815583
 51
294.171962
  0
LINE
  5
620
100
AcDbEntity
  8
0
370
    35
390
0
 62
     5
 48
0.125104
100
AcDbLine
 10
1232.700073
 20
464.229675
 30
0.0
 11
1237.278442
 21
466.249634
 31
0.0
210
0.0
220
0.0
230
1.0
  0
ARC
  5
621
100
AcDbEntity
  8
0
370
    35
390
0
 62
     5
100
AcDbCircle
 10
1232.66272
 20
464.314331
 30
0.0
 40
0.092541
210
0.0
220
0.0
230
1.0
100
AcDbArc
 50
224.999986
 51
293.798371
  0
ARC
  5
622
100
AcDbEntity
  8
0
370
    35
390
0
 62
     5
100
AcDbCircle
 10
1232.712891
 20
464.364502
 30
0.0
 40
0.163496
210
0.0
220
0.0
230
1.0
100
AcDbArc
 50
143.331697
 51
225.000013
  0
LINE
  5
623
100
AcDbEntity
  8
0
370
    35
390
0
 62
     5
 48
0.205979
100
AcDbLine
 10
1237.503906
 20
471.069458
 30
0.0
 11
1232.581787
 21
464.462158
 31
0.0
210
0.0
220
0.0
230
1.0
  0
LINE
  5
624
100
AcDbEntity
  8
0
370
    35
390
0
 62
     5
 48
0.204345
100
AcDbLine
 10
1242.391846
 20
477.620728
 30
0.0
 11
1237.503906
 21
471.069458
 31
0.0
210
0.0
220
0.0
230
1.0
  0
ARC
  5
625
100
AcDbEntity
  8
0
370
    35
390
0
 62
     5
100
AcDbCircle
 10
1242.842285
 20
477.284424
 30
0.0
 40
0.562101
210
0.0
220
0.0
230
1.0
100
AcDbArc
 50
102.166919
 51
143.24826
  0
ARC
  5
626
100
AcDbEntity
  8
0
370
    35
390
0
 62
     5
100
AcDbCircle
 10
1242.875977
 20
477.127808
 30
0.0
 40
0.722268
210
0.0
220
0.0
230
1.0
100
AcDbArc
 50
66.478033
 51
102.166871
  0
ARC
  5
627
100
AcDbEntity
  8
0
370
    35
390
0
 62
     5
100
AcDbCircle
 10
1229.36731
 20
446.092529
 30
0.0
 40
34.570068
210
0.0
220
0.0
230
1.0
100
AcDbArc
 50
64.266001
 51
66.478006
  0
ARC
  5
628
100
AcDbEntity
  8
0
370
    35
390
0
 62
     5
100
AcDbCircle
 10
1233.969971
 20
455.641724
 30
0.0
 40
23.969505
210
0.0
220
0.0
230
1.0
100
AcDbArc
 50
60.7877
 51
64.265974
  0
ARC
  5
629
100
AcDbEntity
  8
0
370
    35
390
0
 62
     5
100
AcDbCircle
 10
1237.636963
 20
462.199585
 30
0.0
 40
16.456097
210
0.0
220
0.0
230
1.0
100
AcDbArc
 50
56.176967
 51
60.787741
  0
ARC
  5
62A
100
AcDbEntity
  8
0
370
    35
390
0
 62
     5
100
AcDbCircle
 10
1240.178833
 20
465.993408
 30
0.0
 40
11.889428
210
0.0
220
0.0
230
1.0
100
AcDbArc
 50
48.018941
 51
56.176933
  0
ARC
  5
62B
100
AcDbEntity
  8
0
370
    35
390
0
 62
     5
100
AcDbCircle
 10
1231.523193
 20
456.373962
 30
0.0
 40
24.829821
210
0.0
220
0.0
230
1.0
100
AcDbArc
 50
43.315844
 51
48.018938
  0
ARC
  5
62C
100
AcDbEntity
  8
0
370
    35
390
0
 62
     5
100
AcDbCircle
 10
1231.511353
 20
456.362671
 30
0.0
 40
24.846182
210
0.0
220
0.0
230
1.0
100
AcDbArc
 50
38.613501
 51
43.315909
  0
ARC
  5
62D
100
AcDbEntity
  8
0
370
    35
390
0
 62
     5
100
AcDbCircle
 10
1241.574341
 20
464.399719
 30
0.0
 40
11.967655
210
0.0
220
0.0
230
1.0
100
AcDbArc
 50
30.492393
 51
38.613532
  0
ARC
  5
62E
100
AcDbEntity
  8
0
370
    35
390
0
 62
     5
100
AcDbCircle
 10
1237.001831
 20
461.707153
 30
0.0
 40
17.273968
210
0.0
220
0.0
230
1.0
100
AcDbArc
 50
16.693469
 51
30.492386
  0
ARC
  5
62F
100
AcDbEntity
  8
0
370
    35
390
0
 62
     5
100
AcDbCircle
 10
1236.952026
 20
461.6922
 30
0.0
 40
17.325975
210
0.0
220
0.0
230
1.0
100
AcDbArc
 50
2.925619
 51
16.693481
  0
ARC
  5
630
100
AcDbEntity
  8
0
370
    35
390
0
 62
     5
100
AcDbCircle
 10
1237.045288
 20
461.69696
 30
0.0
 40
17.232594
210
0.0
220
0.0
230
1.0
100
AcDbArc
 50
349.118563
 51
2.925689
  0
ARC
  5
631
100
AcDbEntity
  8
0
370
    35
390
0
 62
     5
100
AcDbCircle
 10
1237.396729
 20
461.629395
 30
0.0
 40
16.874722
210
0.0
220
0.0
230
1.0
100
AcDbArc
 50
335.09244
 51
349.118563
  0
ARC
  5
632
100
AcDbEntity
  8
0
370
    35
390
0
 62
     5
100
AcDbCircle
 10
1235.433594
 20
462.541016
 30
0.0
 40
19.039236
210
0.0
220
0.0
230
1.0
100
AcDbArc
 50
326.111149
 51
335.092359
  0
ARC
  5
633
100
AcDbEntity
  8
0
370
    35
390
0
 62
     5
100
AcDbCircle
 10
1238.32605
 20
460.598145
 30
0.0
 40
15.554747
210
0.0
220
0.0
230
1.0
100
AcDbArc
 50
315.660034
 51
326.111098
  0
ARC
  5
634
100
AcDbEntity
  8
0
370
    35
390
0
 62
     5
100
AcDbCircle
 10
1238.321899
 20
460.602173
 30
0.0
 40
15.560564
210
0.0
220
0.0
230
1.0
100
AcDbArc
 50
305.211074
 51
315.660089
  0
ARC
  5
635
100
AcDbEntity
  8
0
370
    35
390
0
 62
     5
100
AcDbCircle
 10
1236.298218
 20
463.469849
 30
0.0
 40
19.070393
210
0.0
220
0.0
230
1.0
100
AcDbArc
 50
296.24017
 51
305.211074
  0
ARC
  5
636
100
AcDbEntity
  8
0
370
    35
390
0
 62
     5
100
AcDbCircle
 10
1232.597168
 20
470.978088
 30
0.0
 40
27.441259
210
0.0
220
0.0
230
1.0
100
AcDbArc
 50
291.750298
 51
296.240109
  0
ARC
  5
637
100
AcDbEntity
  8
0
370
    35
390
0
 62
     5
100
AcDbCircle
 10
1238.904419
 20
455.169128
 30
0.0
 40
10.420556
210
0.0
220
0.0
230
1.0
100
AcDbArc
 50
282.499954
 51
291.750243
  0
ARC
  5
638
100
AcDbEntity
  8
0
370
    35
390
0
 62
     5
100
AcDbCircle
 10
1238.731934
 20
455.947266
 30
0.0
 40
11.217576
210
0.0
220
0.0
230
1.0
100
AcDbArc
 50
273.663766
 51
282.499899
  0
ARC
  5
639
100
AcDbEntity
  8
0
370
    35
390
0
 62
     5
100
AcDbCircle
 10
1237.188965
 20
480.043884
 30
0.0
 40
35.363567
210
0.0
220
0.0
230
1.0
100
AcDbArc
 50
269.908473
 51
273.663766
  0
ARC
  5
63A
100
AcDbEntity
  8
0
370
    35
390
0
 62
     5
100
AcDbCircle
 10
1237.189697
 20
480.503418
 30
0.0
 40
35.823055
210
0.0
220
0.0
230
1.0
100
AcDbArc
 50
266.193533
 51
269.9085
  0
ARC
  5
63B
100
AcDbEntity
  8
0
370
    35
390
0
 62
     5
100
AcDbCircle
 10
1235.575439
 20
456.241455
 30
0.0
 40
11.507488
210
0.0
220
0.0
230
1.0
100
AcDbArc
 50
257.533208
 51
266.19356
  0
ARC
  5
63C
100
AcDbEntity
  8
0
370
    35
390
0
 62
     5
100
AcDbCircle
 10
1235.344116
 20
455.194885
 30
0.0
 40
10.435652
210
0.0
220
0.0
230
1.0
100
AcDbArc
 50
248.333196
 51
257.533161
  0
ARC
  5
63D
100
AcDbEntity
  8
0
370
    35
390
0
 62
     5
100
AcDbCircle
 10
1240.917114
 20
469.222961
 30
0.0
 40
25.530169
210
0.0
220
0.0
230
1.0
100
AcDbArc
 50
243.617497
 51
248.333196
  0
ARC
  5
63E
100
AcDbEntity
  8
0
370
    35
390
0
 62
     5
100
AcDbCircle
 10
1237.428223
 20
462.18927
 30
0.0
 40
17.67874
210
0.0
220
0.0
230
1.0
100
AcDbArc
 50
231.592293
 51
243.61747
  0
ARC
  5
63F
100
AcDbEntity
  8
0
370
    35
390
0
 62
     5
100
AcDbCircle
 10
1236.919678
 20
461.547729
 30
0.0
 40
16.860044
210
0.0
220
0.0
230
1.0
100
AcDbArc
 50
219.131706
 51
231.592239
  0
ARC
  5
640
100
AcDbEntity
  8
0
370
    35
390
0
 62
     5
100
AcDbCircle
 10
1236.891479
 20
461.524841
 30
0.0
 40
16.823822
210
0.0
220
0.0
230
1.0
100
AcDbArc
 50
206.656994
 51
219.131692
  0
ARC
  5
641
100
AcDbEntity
  8
0
370
    35
390
0
 62
     5
100
AcDbCircle
 10
1237.508179
 20
461.834412
 30
0.0
 40
17.513855
210
0.0
220
0.0
230
1.0
100
AcDbArc
 50
194.552724
 51
206.656994
  0
ARC
  5
642
100
AcDbEntity
  8
0
370
    35
390
0
 62
     5
100
AcDbCircle
 10
1240.086914
 20
462.503845
 30
0.0
 40
20.178015
210
0.0
220
0.0
230
1.0
100
AcDbArc
 50
191.592738
 51
194.552697
  0
ARC
  5
643
100
AcDbEntity
  8
0
370
    35
390
0
 62
     5
100
AcDbCircle
 10
1230.675415
 20
460.573181
 30
0.0
 40
10.570497
210
0.0
220
0.0
230
1.0
100
AcDbArc
 50
186.79061
 51
191.59267
  0
ARC
  5
644
100
AcDbEntity
  8
0
370
    35
390
0
 62
     5
100
AcDbCircle
 10
1232.363647
 20
460.774231
 30
0.0
 40
12.270716
210
0.0
220
0.0
230
1.0
100
AcDbArc
 50
182.401571
 51
186.790583
  0
ARC
  5
645
100
AcDbEntity
  8
0
370
    35
390
0
 62
     5
100
AcDbCircle
 10
1254.791016
 20
461.714783
 30
0.0
 40
34.717758
210
0.0
220
0.0
230
1.0
100
AcDbArc
 50
180.381393
 51
182.401585
  0
ARC
  5
646
100
AcDbEntity
  8
0
370
    35
390
0
 62
     5
100
AcDbCircle
 10
1246.223511
 20
461.657776
 30
0.0
 40
26.15004
210
0.0
220
0.0
230
1.0
100
AcDbArc
 50
178.320216
 51
180.381434
  0
ARC
  5
647
100
AcDbEntity
  8
0
370
    35
390
0
 62
     5
100
AcDbCircle
 10
1249.233521
 20
461.569519
 30
0.0
 40
29.161419
210
0.0
220
0.0
230
1.0
100
AcDbArc
 50
176.420836
 51
178.320257
  0
ARC
  5
648
100
AcDbEntity
  8
0
370
    35
390
0
 62
     5
100
AcDbCircle
 10
1246.008911
 20
461.771301
 30
0.0
 40
25.93049
210
0.0
220
0.0
230
1.0
100
AcDbArc
 50
174.516429
 51
176.42089
  0
ARC
  5
649
100
AcDbEntity
  8
0
370
    35
390
0
 62
     5
100
AcDbCircle
 10
1225.454102
 20
463.744568
 30
0.0
 40
5.281208
210
0.0
220
0.0
230
1.0
100
AcDbArc
 50
168.319808
 51
174.516552
  0
ARC
  5
64A
100
AcDbEntity
  8
0
370
    35
390
0
 62
     5
100
AcDbCircle
 10
1238.943848
 20
460.955872
 30
0.0
 40
19.056112
210
0.0
220
0.0
230
1.0
100
AcDbArc
 50
152.976116
 51
168.319876
  0
ARC
  5
64B
100
AcDbEntity
  8
0
370
    35
390
0
 62
     5
100
AcDbCircle
 10
1236.932495
 20
461.981689
 30
0.0
 40
16.798307
210
0.0
220
0.0
230
1.0
100
AcDbArc
 50
136.110534
 51
152.976102
  0
ARC
  5
64C
100
AcDbEntity
  8
0
370
    35
390
0
 62
     5
100
AcDbCircle
 10
1236.726563
 20
462.179871
 30
0.0
 40
16.512478
210
0.0
220
0.0
230
1.0
100
AcDbArc
 50
119.084908
 51
136.11048
  0
ARC
  5
64D
100
AcDbEntity
  8
0
370
    35
390
0
 62
     5
100
AcDbCircle
 10
1237.366577
 20
461.029236
 30
0.0
 40
17.829153
210
0.0
220
0.0
230
1.0
100
AcDbArc
 50
103.011219
 51
119.084922
  0
ENDSEC
  0
SECTION
  2
OBJECTS
  0
DICTIONARY
  5
19
100
AcDbDictionary
280
     0
281
     1
  3
ACAD_GROUP
350
1A
  3
ACAD_MLINESTYLE
350
1B
  3
ACAD_LAYOUT
350
1E
  3
ACAD_PLOTSETTINGS
350
22
  3
ACAD_PLOTSTYLENAME
350
1F
  3
ACAD_WIPEOUT_VARS
350
23
  0
DICTIONARY
  5
1A
102
{ACAD_REACTORS
330
19
102
}
100
AcDbDictionary
280
     0
281
     1
  0
DICTIONARY
  5
1B
102
{ACAD_REACTORS
330
19
102
}
100
AcDbDictionary
280
     0
281
     1
  3
Standard
350
1C
  0
MLINESTYLE
  5
1C
102
{ACAD_REACTORS
330
1B
102
}
100
AcDbMlineStyle
  2
Standard
 70
     0
  3

 62
     0
 51
90.0
 52
90.0
 71
     2
 49
0.5
 62
   256
  6
ByLayer
 49
-0.5
 62
   256
  6
ByLayer
  0
ACDBDICTIONARYWDFLT
  5
1F
102
{ACAD_REACTORS
330
19
102
}
100
AcDbDictionary
281
     1
  3
Normal
350
1D
100
AcDbDictionaryWithDefault
340
1D
  0
ACDBPLACEHOLDER
  5
1D
102
{ACAD_REACTORS
330
1F
102
}
  0
LAYOUT
  5
20
102
{ACAD_REACTORS
330
1E
102
}
100
AcDbPlotSettings
  1

  2

  4

  6

 40
0.0
 41
0.0
 42
0.0
 43
0.0
 44
0.0
 45
0.0
 46
0.0
 47
0.0
 48
0.0
 49
0.0
140
0.0
141
0.0
142
1.0
143
1.0
 70
  1024
 72
     0
 73
     0
 74
     0
  7

 75
     0
147
1.0
148
0.0
149
0.0
100
AcDbLayout
  1
Model
 70
     0
 71
     0
 10
0.0
 20
0.0
 11
0.0
 21
0.0
 12
0.0
 22
0.0
 32
0.0
 14
0.0
 24
0.0
 34
0.0
 15
0.0
 25
0.0
 35
0.0
146
0.0
 13
0.0
 23
0.0
 33
0.0
 16
0.0
 26
0.0
 36
0.0
 17
0.0
 27
0.0
 37
0.0
 76
     0
330
A
331
0
345
0
346
0
  0
LAYOUT
  5
21
102
{ACAD_REACTORS
330
1E
102
}
100
AcDbPlotSettings
  1

  2

  4

  6

 40
0.0
 41
0.0
 42
0.0
 43
0.0
 44
0.0
 45
0.0
 46
0.0
 47
0.0
 48
0.0
 49
0.0
140
0.0
141
0.0
142
1.0
143
1.0
 70
     0
 72
     0
 73
     0
 74
     0
  7

 75
     0
147
1.0
148
0.0
149
0.0
100
AcDbLayout
  1
Layout1
 70
     0
 71
     0
 10
0.0
 20
0.0
 11
0.0
 21
0.0
 12
0.0
 22
0.0
 32
0.0
 14
0.0
 24
0.0
 34
0.0
 15
0.0
 25
0.0
 35
0.0
146
0.0
 13
0.0
 23
0.0
 33
0.0
 16
0.0
 26
0.0
 36
0.0
 17
0.0
 27
0.0
 37
0.0
 76
     0
330
B
331
0
345
0
346
0
  0
DICTIONARY
  5
1E
102
{ACAD_REACTORS
330
19
102
}
100
AcDbDictionary
280
     0
281
     1
  3
Layout1
350
21
  3
Model
350
20
  0
DICTIONARY
  5
22
102
{ACAD_REACTORS
330
19
102
}
100
AcDbDictionary
280
     0
281
     1
  0
WIPEOUTVARIABLES
  5
23
100
AcDbWipeoutVariables
 70
     1
  0
ENDSEC
  0
EOF
