  0
SECTION
  2
HEADER
  9
$ACADVER
  1
AC1024
  9
$ACADMAINTVER
 70
     6
  9
$DWGCODEPAGE
  3
ANSI_1252
  9
$INSBASE
 10
0.0
 20
0.0
 30
0.0
  9
$EXTMIN
 10
1.000000000000000E+20
 20
1.000000000000000E+20
 30
1.000000000000000E+20
  9
$EXTMAX
 10
-1.000000000000000E+20
 20
-1.000000000000000E+20
 30
-1.000000000000000E+20
  9
$LIMMIN
 10
0.0
 20
0.0
  9
$LIMMAX
 10
12.0
 20
9.0
  9
$ORTHOMODE
 70
     0
  9
$REGENMODE
 70
     1
  9
$FILLMODE
 70
     1
  9
$QTEXTMODE
 70
     0
  9
$MIRRTEXT
 70
     1
  9
$LTSCALE
 40
1.0
  9
$ATTMODE
 70
     1
  9
$TEXTSIZE
 40
0.2
  9
$TRACEWID
 40
0.05
  9
$TEXTSTYLE
  7
Standard
  9
$CLAYER
  8
0
  9
$CELTYPE
  6
ByLayer
  9
$CECOLOR
 62
   256
  9
$CELTSCALE
 40
1.0
  9
$DISPSILH
 70
     0
  9
$DIMSCALE
 40
1.0
  9
$DIMASZ
 40
0.18
  9
$DIMEXO
 40
0.0625
  9
$DIMDLI
 40
0.38
  9
$DIMRND
 40
0.0
  9
$DIMDLE
 40
0.0
  9
$DIMEXE
 40
0.18
  9
$DIMTP
 40
0.0
  9
$DIMTM
 40
0.0
  9
$DIMTXT
 40
0.18
  9
$DIMCEN
 40
0.09
  9
$DIMTSZ
 40
0.0
  9
$DIMTOL
 70
     0
  9
$DIMLIM
 70
     0
  9
$DIMTIH
 70
     1
  9
$DIMTOH
 70
     1
  9
$DIMSE1
 70
     0
  9
$DIMSE2
 70
     0
  9
$DIMTAD
 70
     0
  9
$DIMZIN
 70
     0
  9
$DIMBLK
  1

  9
$DIMASO
 70
     1
  9
$DIMSHO
 70
     1
  9
$DIMPOST
  1

  9
$DIMAPOST
  1

  9
$DIMALT
 70
     0
  9
$DIMALTD
 70
     2
  9
$DIMALTF
 40
25.4
  9
$DIMLFAC
 40
1.0
  9
$DIMTOFL
 70
     0
  9
$DIMTVP
 40
0.0
  9
$DIMTIX
 70
     0
  9
$DIMSOXD
 70
     0
  9
$DIMSAH
 70
     0
  9
$DIMBLK1
  1

  9
$DIMBLK2
  1

  9
$DIMSTYLE
  2
Standard
  9
$DIMCLRD
 70
     0
  9
$DIMCLRE
 70
     0
  9
$DIMCLRT
 70
     0
  9
$DIMTFAC
 40
1.0
  9
$DIMGAP
 40
0.09
  9
$DIMJUST
 70
     0
  9
$DIMSD1
 70
     0
  9
$DIMSD2
 70
     0
  9
$DIMTOLJ
 70
     1
  9
$DIMTZIN
 70
     0
  9
$DIMALTZ
 70
     0
  9
$DIMALTTZ
 70
     0
  9
$DIMUPT
 70
     0
  9
$DIMDEC
 70
     4
  9
$DIMTDEC
 70
     4
  9
$DIMALTU
 70
     2
  9
$DIMALTTD
 70
     2
  9
$DIMTXSTY
  7
Standard
  9
$DIMAUNIT
 70
     0
  9
$DIMADEC
 70
     0
  9
$DIMALTRND
 40
0.0
  9
$DIMAZIN
 70
     0
  9
$DIMDSEP
 70
    46
  9
$DIMATFIT
 70
     3
  9
$DIMFRAC
 70
     0
  9
$DIMLDRBLK
  1

  9
$DIMLUNIT
 70
     2
  9
$DIMLWD
 70
    -2
  9
$DIMLWE
 70
    -2
  9
$DIMTMOVE
 70
     0
  9
$DIMFXL
 40
1.0
  9
$DIMFXLON
 70
     0
  9
$DIMJOGANG
 40
0.7853981633974483
  9
$DIMTFILL
 70
     0
  9
$DIMTFILLCLR
 70
     0
  9
$DIMARCSYM
 70
     0
  9
$DIMLTYPE
  6

  9
$DIMLTEX1
  6

  9
$DIMLTEX2
  6

  9
$DIMTXTDIRECTION
 70
     0
  9
$LUNITS
 70
     2
  9
$LUPREC
 70
     4
  9
$SKETCHINC
 40
0.1
  9
$FILLETRAD
 40
0.5
  9
$AUNITS
 70
     0
  9
$AUPREC
 70
     0
  9
$MENU
  1
.
  9
$ELEVATION
 40
0.0
  9
$PELEVATION
 40
0.0
  9
$THICKNESS
 40
0.0
  9
$LIMCHECK
 70
     0
  9
$CHAMFERA
 40
0.5
  9
$CHAMFERB
 40
0.5
  9
$CHAMFERC
 40
1.0
  9
$CHAMFERD
 40
0.0
  9
$SKPOLY
 70
     0
  9
$TDCREATE
 40
2460062.675760231
  9
$TDUCREATE
 40
2460062.592426898
  9
$TDUPDATE
 40
2460062.67576147
  9
$TDUUPDATE
 40
2460062.592428137
  9
$TDINDWG
 40
0.0000000116
  9
$TDUSRTIMER
 40
0.0000000116
  9
$USRTIMER
 70
     1
  9
$ANGBASE
 50
0.0
  9
$ANGDIR
 70
     0
  9
$PDMODE
 70
     0
  9
$PDSIZE
 40
0.0
  9
$PLINEWID
 40
0.0
  9
$SPLFRAME
 70
     0
  9
$SPLINETYPE
 70
     6
  9
$SPLINESEGS
 70
     8
  9
$HANDSEED
  5
116
  9
$SURFTAB1
 70
     6
  9
$SURFTAB2
 70
     6
  9
$SURFTYPE
 70
     6
  9
$SURFU
 70
     6
  9
$SURFV
 70
     6
  9
$UCSBASE
  2

  9
$UCSNAME
  2

  9
$UCSORG
 10
0.0
 20
0.0
 30
0.0
  9
$UCSXDIR
 10
1.0
 20
0.0
 30
0.0
  9
$UCSYDIR
 10
0.0
 20
1.0
 30
0.0
  9
$UCSORTHOREF
  2

  9
$UCSORTHOVIEW
 70
     0
  9
$UCSORGTOP
 10
0.0
 20
0.0
 30
0.0
  9
$UCSORGBOTTOM
 10
0.0
 20
0.0
 30
0.0
  9
$UCSORGLEFT
 10
0.0
 20
0.0
 30
0.0
  9
$UCSORGRIGHT
 10
0.0
 20
0.0
 30
0.0
  9
$UCSORGFRONT
 10
0.0
 20
0.0
 30
0.0
  9
$UCSORGBACK
 10
0.0
 20
0.0
 30
0.0
  9
$PUCSBASE
  2

  9
$PUCSNAME
  2

  9
$PUCSORG
 10
0.0
 20
0.0
 30
0.0
  9
$PUCSXDIR
 10
1.0
 20
0.0
 30
0.0
  9
$PUCSYDIR
 10
0.0
 20
1.0
 30
0.0
  9
$PUCSORTHOREF
  2

  9
$PUCSORTHOVIEW
 70
     0
  9
$PUCSORGTOP
 10
0.0
 20
0.0
 30
0.0
  9
$PUCSORGBOTTOM
 10
0.0
 20
0.0
 30
0.0
  9
$PUCSORGLEFT
 10
0.0
 20
0.0
 30
0.0
  9
$PUCSORGRIGHT
 10
0.0
 20
0.0
 30
0.0
  9
$PUCSORGFRONT
 10
0.0
 20
0.0
 30
0.0
  9
$PUCSORGBACK
 10
0.0
 20
0.0
 30
0.0
  9
$USERI1
 70
     0
  9
$USERI2
 70
     0
  9
$USERI3
 70
     0
  9
$USERI4
 70
     0
  9
$USERI5
 70
     0
  9
$USERR1
 40
0.0
  9
$USERR2
 40
0.0
  9
$USERR3
 40
0.0
  9
$USERR4
 40
0.0
  9
$USERR5
 40
0.0
  9
$WORLDVIEW
 70
     1
  9
$SHADEDGE
 70
     3
  9
$SHADEDIF
 70
    70
  9
$TILEMODE
 70
     1
  9
$MAXACTVP
 70
    64
  9
$PINSBASE
 10
0.0
 20
0.0
 30
0.0
  9
$PLIMCHECK
 70
     0
  9
$PEXTMIN
 10
1.000000000000000E+20
 20
1.000000000000000E+20
 30
1.000000000000000E+20
  9
$PEXTMAX
 10
-1.000000000000000E+20
 20
-1.000000000000000E+20
 30
-1.000000000000000E+20
  9
$PLIMMIN
 10
0.0
 20
0.0
  9
$PLIMMAX
 10
12.0
 20
9.0
  9
$UNITMODE
 70
     0
  9
$VISRETAIN
 70
     1
  9
$PLINEGEN
 70
     0
  9
$PSLTSCALE
 70
     1
  9
$TREEDEPTH
 70
  3020
  9
$CMLSTYLE
  2
Standard
  9
$CMLJUST
 70
     0
  9
$CMLSCALE
 40
1.0
  9
$PROXYGRAPHICS
 70
     1
  9
$MEASUREMENT
 70
     0
  9
$CELWEIGHT
370
    -1
  9
$ENDCAPS
280
     0
  9
$JOINSTYLE
280
     0
  9
$LWDISPLAY
290
     1
  9
$INSUNITS
 70
     4
  9
$HYPERLINKBASE
  1

  9
$STYLESHEET
  1

  9
$XEDIT
290
     1
  9
$CEPSNTYPE
380
     0
  9
$PSTYLEMODE
290
     1
  9
$FINGERPRINTGUID
  2
{5FD84C81-3308-47FE-8572-119E6E8E1555}
  9
$VERSIONGUID
  2
{FAEB1C32-E019-11D5-929B-00C0DF256EC4}
  9
$EXTNAMES
290
     1
  9
$PSVPSCALE
 40
0.0
  9
$OLESTARTUP
290
     0
  9
$SORTENTS
280
   127
  9
$INDEXCTL
280
     0
  9
$HIDETEXT
280
     1
  9
$XCLIPFRAME
280
     2
  9
$HALOGAP
280
     0
  9
$OBSCOLOR
 70
   257
  9
$OBSLTYPE
280
     0
  9
$INTERSECTIONDISPLAY
280
     0
  9
$INTERSECTIONCOLOR
 70
   257
  9
$DIMASSOC
280
     2
  9
$PROJECTNAME
  1

  9
$CAMERADISPLAY
290
     0
  9
$LENSLENGTH
 40
50.0
  9
$CAMERAHEIGHT
 40
0.0
  9
$STEPSPERSEC
 40
2.0
  9
$STEPSIZE
 40
6.0
  9
$3DDWFPREC
 40
2.0
  9
$PSOLWIDTH
 40
0.25
  9
$PSOLHEIGHT
 40
4.0
  9
$LOFTANG1
 40
1.570796326794897
  9
$LOFTANG2
 40
1.570796326794897
  9
$LOFTMAG1
 40
0.0
  9
$LOFTMAG2
 40
0.0
  9
$LOFTPARAM
 70
     7
  9
$LOFTNORMALS
280
     1
  9
$LATITUDE
 40
37.795
  9
$LONGITUDE
 40
-122.394
  9
$NORTHDIRECTION
 40
0.0
  9
$TIMEZONE
 70
 -8000
  9
$LIGHTGLYPHDISPLAY
280
     1
  9
$TILEMODELIGHTSYNCH
280
     1
  9
$CMATERIAL
347
3C
  9
$SOLIDHIST
280
     1
  9
$SHOWHIST
280
     1
  9
$DWFFRAME
280
     2
  9
$DGNFRAME
280
     2
  9
$REALWORLDSCALE
290
     1
  9
$INTERFERECOLOR
 62
   256
  9
$CSHADOW
280
     0
  9
$SHADOWPLANELOCATION
 40
0.0
  0
ENDSEC
  0
SECTION
  2
CLASSES
  0
CLASS
  1
ACDBDICTIONARYWDFLT
  2
AcDbDictionaryWithDefault
  3
ObjectDBX Classes
 90
        0
 91
        4
280
     0
281
     0
  0
CLASS
  1
VISUALSTYLE
  2
AcDbVisualStyle
  3
ObjectDBX Classes
 90
     4095
 91
        4
280
     0
281
     0
  0
CLASS
  1
MATERIAL
  2
AcDbMaterial
  3
ObjectDBX Classes
 90
     1153
 91
        4
280
     0
281
     0
  0
CLASS
  1
SUN
  2
AcDbSun
  3
SCENEOE
 90
     1024
 91
        4
280
     0
281
     0
  0
ENDSEC
  0
SECTION
  2
TABLES
  0
TABLE
  2
VPORT
  5
8
330
0
100
AcDbSymbolTable
 70
     1
  0
VPORT
  5
29
330
8
100
AcDbSymbolTableRecord
100
AcDbViewportTableRecord
  2
*Active
 70
     0
 10
0.0
 20
0.0
 11
1.0
 21
1.0
 12
0.0
 22
0.0
 13
0.0
 23
0.0
 14
0.5
 24
0.5
 15
0.5
 25
0.5
 16
0.0
 26
0.0
 36
1.0
 17
148.4999999628701
 27
-104.9999999737534
 37
0.0
 40
209.9999999475068
 41
1.414285714285622
 42
50.0
 43
0.0
 44
0.0
 50
0.0
 51
0.0
 71
     0
 72
   100
 73
     1
 74
     3
 75
     0
 76
     0
 77
     0
 78
     0
281
     0
 65
     1
110
0.0
120
0.0
130
0.0
111
1.0
121
0.0
131
0.0
112
0.0
122
1.0
132
0.0
 79
     0
146
0.0
 60
     3
 61
     5
292
     1
282
     1
141
0.0
142
0.0
 63
   250
361
3F
  0
ENDTAB
  0
TABLE
  2
LTYPE
  5
5
330
0
100
AcDbSymbolTable
 70
     1
  0
LTYPE
  5
14
330
5
100
AcDbSymbolTableRecord
100
AcDbLinetypeTableRecord
  2
ByBlock
 70
     0
  3

 72
    65
 73
     0
 40
0.0
  0
LTYPE
  5
15
330
5
100
AcDbSymbolTableRecord
100
AcDbLinetypeTableRecord
  2
ByLayer
 70
     0
  3

 72
    65
 73
     0
 40
0.0
  0
LTYPE
  5
16
330
5
100
AcDbSymbolTableRecord
100
AcDbLinetypeTableRecord
  2
Continuous
 70
     0
  3
Solid line
 72
    65
 73
     0
 40
0.0
  0
ENDTAB
  0
TABLE
  2
LAYER
  5
2
330
0
100
AcDbSymbolTable
 70
     2
  0
LAYER
  5
10
330
2
100
AcDbSymbolTableRecord
100
AcDbLayerTableRecord
  2
0
 70
     0
 62
     7
  6
Continuous
370
    -3
390
F
347
3E
  0
LAYER
  5
40
330
2
100
AcDbSymbolTableRecord
100
AcDbLayerTableRecord
  2
Calque 1
 70
     0
 62
     7
  6
Continuous
370
    -3
390
F
347
3E
  0
ENDTAB
  0
TABLE
  2
STYLE
  5
3
330
0
100
AcDbSymbolTable
 70
     1
  0
STYLE
  5
11
330
3
100
AcDbSymbolTableRecord
100
AcDbTextStyleTableRecord
  2
Standard
 70
     0
 40
0.0
 41
1.0
 50
0.0
 71
     0
 42
0.2
  3
txt
  4

  0
ENDTAB
  0
TABLE
  2
VIEW
  5
6
330
0
100
AcDbSymbolTable
 70
     0
  0
ENDTAB
  0
TABLE
  2
UCS
  5
7
330
0
100
AcDbSymbolTable
 70
     0
  0
ENDTAB
  0
TABLE
  2
APPID
  5
9
330
0
100
AcDbSymbolTable
 70
     1
  0
APPID
  5
12
330
9
100
AcDbSymbolTableRecord
100
AcDbRegAppTableRecord
  2
ACAD
 70
     0
  0
ENDTAB
  0
TABLE
  2
DIMSTYLE
  5
A
330
0
100
AcDbSymbolTable
 70
     1
100
AcDbDimStyleTable
  0
DIMSTYLE
105
27
330
A
100
AcDbSymbolTableRecord
100
AcDbDimStyleTableRecord
  2
Standard
 70
     0
178
     0
340
11
  0
ENDTAB
  0
TABLE
  2
BLOCK_RECORD
  5
1
330
0
100
AcDbSymbolTable
 70
     7
  0
BLOCK_RECORD
  5
1F
330
1
100
AcDbSymbolTableRecord
100
AcDbBlockTableRecord
  2
*Model_Space
340
22
 70
     0
280
     1
281
     0
  0
BLOCK_RECORD
  5
1B
330
1
100
AcDbSymbolTableRecord
100
AcDbBlockTableRecord
  2
*Paper_Space
340
1E
 70
     0
280
     1
281
     0
  0
BLOCK_RECORD
  5
23
330
1
100
AcDbSymbolTableRecord
100
AcDbBlockTableRecord
  2
*Paper_Space0
340
26
 70
     0
280
     1
281
     0
  0
BLOCK_RECORD
  5
C4
330
1
100
AcDbSymbolTableRecord
100
AcDbBlockTableRecord
  2
block 2
340
0
102
{BLKREFS
331
C5
102
}
 70
     0
280
     1
281
     0
  0
BLOCK_RECORD
  5
D8
330
1
100
AcDbSymbolTableRecord
100
AcDbBlockTableRecord
  2
block 3
340
0
102
{BLKREFS
331
D9
102
}
 70
     0
280
     1
281
     0
  0
BLOCK_RECORD
  5
EE
330
1
100
AcDbSymbolTableRecord
100
AcDbBlockTableRecord
  2
block 4
340
0
102
{BLKREFS
331
EF
102
}
 70
     0
280
     1
281
     0
  0
BLOCK_RECORD
  5
F4
330
1
100
AcDbSymbolTableRecord
100
AcDbBlockTableRecord
  2
block 5
340
0
102
{BLKREFS
331
F5
102
}
 70
     0
280
     1
281
     0
  0
BLOCK_RECORD
  5
100
330
1
100
AcDbSymbolTableRecord
100
AcDbBlockTableRecord
  2
block 6
340
0
102
{BLKREFS
331
101
102
}
 70
     0
280
     1
281
     0
  0
BLOCK_RECORD
  5
106
330
1
100
AcDbSymbolTableRecord
100
AcDbBlockTableRecord
  2
block 7
340
0
102
{BLKREFS
331
107
102
}
 70
     0
280
     1
281
     0
  0
ENDTAB
  0
ENDSEC
  0
SECTION
  2
BLOCKS
  0
BLOCK
  5
20
330
1F
100
AcDbEntity
  8
0
100
AcDbBlockBegin
  2
*Model_Space
 70
     0
 10
0.0
 20
0.0
 30
0.0
  3
*Model_Space
  1

  0
ENDBLK
  5
21
330
1F
100
AcDbEntity
  8
0
100
AcDbBlockEnd
  0
BLOCK
  5
1C
330
1B
100
AcDbEntity
 67
     1
  8
0
100
AcDbBlockBegin
  2
*Paper_Space
 70
     0
 10
0.0
 20
0.0
 30
0.0
  3
*Paper_Space
  1

  0
ENDBLK
  5
1D
330
1B
100
AcDbEntity
 67
     1
  8
0
100
AcDbBlockEnd
  0
BLOCK
  5
24
330
23
100
AcDbEntity
  8
0
100
AcDbBlockBegin
  2
*Paper_Space0
 70
     0
 10
0.0
 20
0.0
 30
0.0
  3
*Paper_Space0
  1

  0
ENDBLK
  5
25
330
23
100
AcDbEntity
  8
0
100
AcDbBlockEnd
  0
BLOCK
  5
C6
330
C4
100
AcDbEntity
  8
0
100
AcDbBlockBegin
  2
block 2
 70
     0
 10
0.0
 20
0.0
 30
0.0
  3
block 2
  1

  0
POLYLINE
  5
C8
330
C4
100
AcDbEntity
  8
Calque 1
 62
     1
420
 16711680
370
     9
100
AcDb2dPolyline
 66
     1
 10
0.0
 20
0.0
 30
0.0
  0
VERTEX
  5
C9
330
C8
100
AcDbEntity
  8
Calque 1
 62
     1
420
 16711680
370
     9
100
AcDbVertex
100
AcDb2dVertex
 10
72.42201395791973
 20
-34.94201027547111
 30
0.0
  0
VERTEX
  5
CA
330
C8
100
AcDbEntity
  8
Calque 1
 62
     1
420
 16711680
370
     9
100
AcDbVertex
100
AcDb2dVertex
 10
72.41955781319814
 20
-34.94201027547111
 30
0.0
  0
VERTEX
  5
CB
330
C8
100
AcDbEntity
  8
Calque 1
 62
     1
420
 16711680
370
     9
100
AcDbVertex
100
AcDb2dVertex
 10
72.41955781319814
 20
-29.75441272064926
 30
0.0
  0
VERTEX
  5
CC
330
C8
100
AcDbEntity
  8
Calque 1
 62
     1
420
 16711680
370
     9
100
AcDbVertex
100
AcDb2dVertex
 10
72.42201395791973
 20
-29.75441272064926
 30
0.0
  0
VERTEX
  5
CD
330
C8
100
AcDbEntity
  8
Calque 1
 62
     1
420
 16711680
370
     9
100
AcDbVertex
100
AcDb2dVertex
 10
72.42201395791973
 20
-23.51441549981954
 30
0.0
  0
VERTEX
  5
CE
330
C8
100
AcDbEntity
  8
Calque 1
 62
     1
420
 16711680
370
     9
100
AcDbVertex
100
AcDb2dVertex
 10
72.41955781319814
 20
-23.51441549981954
 30
0.0
  0
VERTEX
  5
CF
330
C8
100
AcDbEntity
  8
Calque 1
 62
     1
420
 16711680
370
     9
100
AcDbVertex
100
AcDb2dVertex
 10
72.41955781319814
 20
-18.74029569954256
 30
0.0
  0
VERTEX
  5
D0
330
C8
100
AcDbEntity
  8
Calque 1
 62
     1
420
 16711680
370
     9
100
AcDbVertex
100
AcDb2dVertex
 10
72.42201395791973
 20
-18.74029569954256
 30
0.0
  0
VERTEX
  5
D1
330
C8
100
AcDbEntity
  8
Calque 1
 62
     1
420
 16711680
370
     9
100
AcDbVertex
100
AcDb2dVertex
 10
72.42201395791973
 20
-12.50015836425858
 30
0.0
  0
VERTEX
  5
D2
330
C8
100
AcDbEntity
  8
Calque 1
 62
     1
420
 16711680
370
     9
100
AcDbVertex
100
AcDb2dVertex
 10
63.29876185621288
 20
-12.50015836425858
 30
0.0
  0
VERTEX
  5
D3
330
C8
100
AcDbEntity
  8
Calque 1
 62
     1
420
 16711680
370
     9
100
AcDbVertex
100
AcDb2dVertex
 10
63.29876185621288
 20
-41.18214761075508
 30
0.0
  0
VERTEX
  5
D4
330
C8
100
AcDbEntity
  8
Calque 1
 62
     1
420
 16711680
370
     9
100
AcDbVertex
100
AcDb2dVertex
 10
72.42201395791973
 20
-41.18214761075508
 30
0.0
  0
VERTEX
  5
D5
330
C8
100
AcDbEntity
  8
Calque 1
 62
     1
420
 16711680
370
     9
100
AcDbVertex
100
AcDb2dVertex
 10
72.42201395791973
 20
-34.94201027547111
 30
0.0
  0
SEQEND
  5
D6
330
C8
100
AcDbEntity
  8
Calque 1
 62
     1
420
 16711680
370
     9
  0
SPLINE
  5
D7
330
C4
100
AcDbEntity
  8
Calque 1
 62
     1
420
 16711680
370
     9
100
AcDbSpline
210
0.0
220
0.0
230
1.0
 70
    11
 71
     3
 72
    77
 73
    73
 74
     0
 42
0.0000000001
 43
0.0000000001
 12
1.0
 22
0.0
 32
0.0
 13
1.0
 23
0.0
 33
0.0
 40
0.0
 40
0.0
 40
0.0
 40
0.0
 40
1.0
 40
1.0
 40
1.0
 40
2.0
 40
2.0
 40
2.0
 40
3.0
 40
3.0
 40
3.0
 40
4.0
 40
4.0
 40
4.0
 40
5.0
 40
5.0
 40
5.0
 40
6.0
 40
6.0
 40
6.0
 40
7.0
 40
7.0
 40
7.0
 40
8.0
 40
8.0
 40
8.0
 40
9.0
 40
9.0
 40
9.0
 40
10.0
 40
10.0
 40
10.0
 40
11.0
 40
11.0
 40
11.0
 40
12.0
 40
12.0
 40
12.0
 40
13.0
 40
13.0
 40
13.0
 40
14.0
 40
14.0
 40
14.0
 40
15.0
 40
15.0
 40
15.0
 40
16.0
 40
16.0
 40
16.0
 40
17.0
 40
17.0
 40
17.0
 40
18.0
 40
18.0
 40
18.0
 40
19.0
 40
19.0
 40
19.0
 40
20.0
 40
20.0
 40
20.0
 40
21.0
 40
21.0
 40
21.0
 40
22.0
 40
22.0
 40
22.0
 40
23.0
 40
23.0
 40
23.0
 40
24.0
 40
24.0
 40
24.0
 40
24.0
 10
86.41443651738655
 20
-28.53275479388575
 30
0.0
 10
85.25669566583564
 20
-27.36742287773774
 30
0.0
 10
83.68772601235251
 20
-26.64737469725402
 30
0.0
 10
81.70768350263515
 20
-26.37134922234599
 30
0.0
 10
81.70768350263515
 20
-26.37134922234599
 30
0.0
 10
81.70768350263515
 20
-26.2961077604042
 30
0.0
 10
81.70768350263515
 20
-26.2961077604042
 30
0.0
 10
83.43680938652454
 20
-25.84493921766067
 30
0.0
 10
84.7264802973986
 20
-25.09322517051242
 30
0.0
 10
85.57763190943596
 20
-24.04068539005029
 30
0.0
 10
86.42815973868713
 20
-22.98814560958847
 30
0.0
 10
86.8537355447055
 20
-21.62245002383731
 30
0.0
 10
86.8537355447055
 20
-19.94317828943402
 30
0.0
 10
86.8537355447055
 20
-17.56263371141906
 30
0.0
 10
85.97513749006663
 20
-15.72713436050722
 30
0.0
 10
84.21794138078923
 20
-14.43611977888115
 30
0.0
 10
82.46074527151119
 20
-13.14566565507178
 30
0.0
 10
79.95048739335743
 20
-12.50015836425858
 30
0.0
 10
76.68701180063059
 20
-12.50015836425858
 30
0.0
 10
76.68701180063059
 20
-12.50015836425858
 30
0.0
 10
75.51355942014668
 20
-12.50015836425858
 30
0.0
 10
75.51355942014668
 20
-12.50015836425858
 30
0.0
 10
75.51355942014668
 20
-12.50015836425858
 30
0.0
 10
75.51355942014668
 20
-18.76607675912786
 30
0.0
 10
75.51355942014668
 20
-18.76607675912786
 30
0.0
 10
76.19693295585571
 20
-18.82858532003815
 30
0.0
 10
76.73631013396778
 20
-19.01292339893472
 30
0.0
 10
77.12631082794954
 20
-19.32303171484369
 30
0.0
 10
77.61395302121475
 20
-19.7118493254376
 30
0.0
 10
77.85847587348209
 20
-20.29444522628448
 30
0.0
 10
77.85847587348209
 20
-21.07095953183795
 30
0.0
 10
77.85847587348209
 20
-21.87325489697736
 30
0.0
 10
77.61395302121475
 20
-22.48065105622945
 30
0.0
 10
77.12631082794954
 20
-22.89412881077464
 30
0.0
 10
76.73631013396778
 20
-23.22437857948437
 30
0.0
 10
76.19693295585571
 20
-23.42048627253941
 30
0.0
 10
75.51355942014668
 20
-23.4869880953967
 30
0.0
 10
75.51355942014668
 20
-23.4869880953967
 30
0.0
 10
75.51355942014668
 20
-29.75441272064926
 30
0.0
 10
75.51355942014668
 20
-29.75441272064926
 30
0.0
 10
75.51355942014668
 20
-29.75441272064926
 30
0.0
 10
75.64108401354031
 20
-29.75441272064926
 30
0.0
 10
75.64108401354031
 20
-29.75441272064926
 30
0.0
 10
76.72880524731855
 20
-29.75441272064926
 30
0.0
 10
77.5793330765694
 20
-29.97411218494147
 30
0.0
 10
78.19329128408003
 20
-30.41225008343794
 30
0.0
 10
78.80646976310743
 20
-30.85108855420534
 30
0.0
 10
79.11368278540716
 20
-31.4460145270277
 30
0.0
 10
79.11368278540716
 20
-32.19786868863053
 30
0.0
 10
79.11368278540716
 20
-33.05018491394344
 30
0.0
 10
78.80646976310743
 20
-33.72035234870791
 30
0.0
 10
78.19329128408003
 20
-34.20907156519489
 30
0.0
 10
77.5793330765694
 20
-34.69765066722761
 30
0.0
 10
76.74268441431616
 20
-34.94201027547111
 30
0.0
 10
75.68287746022924
 20
-34.94201027547111
 30
0.0
 10
75.68287746022924
 20
-34.94201027547111
 30
0.0
 10
75.51355942014668
 20
-34.94201027547111
 30
0.0
 10
75.51355942014668
 20
-34.94201027547111
 30
0.0
 10
75.51355942014668
 20
-34.94201027547111
 30
0.0
 10
75.51355942014668
 20
-41.18214761075508
 30
0.0
 10
75.51355942014668
 20
-41.18214761075508
 30
0.0
 10
75.51355942014668
 20
-41.18214761075508
 30
0.0
 10
75.51554772777878
 20
-41.18214761075508
 30
0.0
 10
75.51554772777878
 20
-41.18214761075508
 30
0.0
 10
79.64311842536098
 20
-41.18214761075508
 30
0.0
 10
82.78105773232627
 20
-40.46798423735059
 30
0.0
 10
84.929209702977
 20
-39.03951737608769
 30
0.0
 10
87.07673789084184
 20
-37.61105051482414
 30
0.0
 10
88.15073590331917
 20
-35.5311915556688
 30
0.0
 10
88.15073590331917
 20
-32.79938004080371
 30
0.0
 10
88.15073590331917
 20
-31.12066876421744
 30
0.0
 10
87.57155358615061
 20
-29.69808671003345
 30
0.0
 10
86.41443651738655
 20
-28.53275479388575
 30
0.0
  0
ENDBLK
  5
C7
330
C4
100
AcDbEntity
  8
0
100
AcDbBlockEnd
  0
BLOCK
  5
DA
330
D8
100
AcDbEntity
  8
0
100
AcDbBlockBegin
  2
block 3
 70
     0
 10
0.0
 20
0.0
 30
0.0
  3
block 3
  1

  0
POLYLINE
  5
DC
330
D8
100
AcDbEntity
  8
Calque 1
 62
     1
420
 16711680
370
     9
100
AcDb2dPolyline
 66
     1
 10
0.0
 20
0.0
 30
0.0
  0
VERTEX
  5
DD
330
DC
100
AcDbEntity
  8
Calque 1
 62
     1
420
 16711680
370
     9
100
AcDbVertex
100
AcDb2dVertex
 10
147.8878694922895
 20
-12.50015836425858
 30
0.0
  0
VERTEX
  5
DE
330
DC
100
AcDbEntity
  8
Calque 1
 62
     1
420
 16711680
370
     9
100
AcDbVertex
100
AcDb2dVertex
 10
139.2252809783355
 20
-12.50015836425858
 30
0.0
  0
VERTEX
  5
DF
330
DC
100
AcDbEntity
  8
Calque 1
 62
     1
420
 16711680
370
     9
100
AcDbVertex
100
AcDb2dVertex
 10
139.2252809783355
 20
-41.18214761075508
 30
0.0
  0
VERTEX
  5
E0
330
DC
100
AcDbEntity
  8
Calque 1
 62
     1
420
 16711680
370
     9
100
AcDbVertex
100
AcDb2dVertex
 10
147.8878694922895
 20
-41.18214761075508
 30
0.0
  0
VERTEX
  5
E1
330
DC
100
AcDbEntity
  8
Calque 1
 62
     1
420
 16711680
370
     9
100
AcDbVertex
100
AcDb2dVertex
 10
147.8878694922895
 20
-12.50015836425858
 30
0.0
  0
SEQEND
  5
E2
330
DC
100
AcDbEntity
  8
Calque 1
 62
     1
420
 16711680
370
     9
  0
SPLINE
  5
E3
330
D8
100
AcDbEntity
  8
Calque 1
 62
     1
420
 16711680
370
     9
100
AcDbSpline
210
0.0
220
0.0
230
1.0
 70
    11
 71
     3
 72
    35
 73
    31
 74
     0
 42
0.0000000001
 43
0.0000000001
 12
1.0
 22
0.0
 32
0.0
 13
1.0
 23
0.0
 33
0.0
 40
0.0
 40
0.0
 40
0.0
 40
0.0
 40
1.0
 40
1.0
 40
1.0
 40
2.0
 40
2.0
 40
2.0
 40
3.0
 40
3.0
 40
3.0
 40
4.0
 40
4.0
 40
4.0
 40
5.0
 40
5.0
 40
5.0
 40
6.0
 40
6.0
 40
6.0
 40
7.0
 40
7.0
 40
7.0
 40
8.0
 40
8.0
 40
8.0
 40
9.0
 40
9.0
 40
9.0
 40
10.0
 40
10.0
 40
10.0
 40
10.0
 10
162.3618523628524
 20
-16.27806439468957
 30
0.0
 10
159.6546545631066
 20
-13.88142416874042
 30
0.0
 10
155.8586634029178
 20
-12.62760997472233
 30
0.0
 10
150.9794149545161
 20
-12.51159520658833
 30
0.0
 10
150.9794149545161
 20
-12.51159520658833
 30
0.0
 10
150.9794149545161
 20
-19.09550335541882
 30
0.0
 10
150.9794149545161
 20
-19.09550335541882
 30
0.0
 10
152.9373911481649
 20
-19.27071648048129
 30
0.0
 10
154.4689533276761
 20
-19.91296611023288
 30
0.0
 10
155.5632437739233
 20
-21.0334088580945
 30
0.0
 10
156.8600881868399
 20
-22.36197411346433
 30
0.0
 10
157.5086663389953
 20
-24.29149026319034
 30
0.0
 10
157.5086663389953
 20
-26.82237765063495
 30
0.0
 10
157.5086663389953
 20
-29.32860489412828
 30
0.0
 10
156.894864077182
 20
-31.25812104385428
 30
0.0
 10
155.6677273906443
 20
-32.61134644317571
 30
0.0
 10
154.553963225535
 20
-33.83920443454077
 30
0.0
 10
152.9881124859838
 20
-34.50392491989518
 30
0.0
 10
150.9794149545161
 20
-34.61778542829486
 30
0.0
 10
150.9794149545161
 20
-34.61778542829486
 30
0.0
 10
150.9794149545161
 20
-41.17218197019547
 30
0.0
 10
150.9794149545161
 20
-41.17218197019547
 30
0.0
 10
155.7838679481864
 20
-41.07030124763548
 30
0.0
 10
159.5658239956809
 20
-39.79180939535969
 30
0.0
 10
162.3200589161647
 20
-37.32900011838262
 30
0.0
 10
165.1925786475195
 20
-34.76056205719425
 30
0.0
 10
166.6294622959815
 20
-31.27101157364709
 30
0.0
 10
166.6294622959815
 20
-26.85992832437904
 30
0.0
 10
166.6294622959815
 20
-22.32442343972057
 30
0.0
 10
165.2069256516054
 20
-18.79662171015838
 30
0.0
 10
162.3618523628524
 20
-16.27806439468957
 30
0.0
  0
ENDBLK
  5
DB
330
D8
100
AcDbEntity
  8
0
100
AcDbBlockEnd
  0
BLOCK
  5
F0
330
EE
100
AcDbEntity
  8
0
100
AcDbBlockBegin
  2
block 4
 70
     0
 10
0.0
 20
0.0
 30
0.0
  3
block 4
  1

  0
SPLINE
  5
F2
330
EE
100
AcDbEntity
  8
Calque 1
 62
     1
420
 16711680
370
     9
100
AcDbSpline
210
0.0
220
0.0
230
1.0
 70
    11
 71
     3
 72
    35
 73
    31
 74
     0
 42
0.0000000001
 43
0.0000000001
 12
1.0
 22
0.0
 32
0.0
 13
1.0
 23
0.0
 33
0.0
 40
0.0
 40
0.0
 40
0.0
 40
0.0
 40
1.0
 40
1.0
 40
1.0
 40
2.0
 40
2.0
 40
2.0
 40
3.0
 40
3.0
 40
3.0
 40
4.0
 40
4.0
 40
4.0
 40
5.0
 40
5.0
 40
5.0
 40
6.0
 40
6.0
 40
6.0
 40
7.0
 40
7.0
 40
7.0
 40
8.0
 40
8.0
 40
8.0
 40
9.0
 40
9.0
 40
9.0
 40
10.0
 40
10.0
 40
10.0
 40
10.0
 10
185.559598787176
 20
-112.201342942287
 30
0.0
 10
184.3764822723267
 20
-111.9048257284418
 30
0.0
 10
183.4166958236196
 20
-111.2688812491329
 30
0.0
 10
182.6818803537848
 20
-110.2910224727958
 30
0.0
 10
181.6263862873662
 20
-108.8877762133015
 30
0.0
 10
181.0989342497029
 20
-106.8701280718409
 30
0.0
 10
181.0989342497029
 20
-104.2387786206866
 30
0.0
 10
181.0989342497029
 20
-101.6074291695306
 30
0.0
 10
181.6263862873662
 20
-99.58403633544596
 30
0.0
 10
182.6818803537848
 20
-98.1678995461579
 30
0.0
 10
183.4166958236196
 20
-97.18184407424663
 30
0.0
 10
184.3764822723267
 20
-96.53994473063018
 30
0.0
 10
185.559598787176
 20
-96.24057268477938
 30
0.0
 10
185.559598787176
 20
-96.24057268477938
 30
0.0
 10
185.559598787176
 20
-89.565992969731
 30
0.0
 10
185.559598787176
 20
-89.565992969731
 30
0.0
 10
181.7796733483671
 20
-89.85762369198285
 30
0.0
 10
178.7362411665659
 20
-91.16513675059944
 30
0.0
 10
176.4294497395462
 20
-93.48779654469507
 30
0.0
 10
173.7913045645919
 20
-96.14436659761805
 30
0.0
 10
172.4723794748886
 20
-99.72793387997872
 30
0.0
 10
172.4723794748886
 20
-104.2387786206866
 30
0.0
 10
172.4723794748886
 20
-108.7497634758467
 30
0.0
 10
173.7842246714693
 20
-112.3273058366742
 30
0.0
 10
176.4096850379103
 20
-114.9709853598044
 30
0.0
 10
178.7069075468821
 20
-117.2852908295641
 30
0.0
 10
181.7570508773727
 20
-118.5863586232845
 30
0.0
 10
185.559598787176
 20
-118.8751169992237
 30
0.0
 10
185.559598787176
 20
-118.8751169992237
 30
0.0
 10
185.559598787176
 20
-112.201342942287
 30
0.0
 10
185.559598787176
 20
-112.201342942287
 30
0.0
  0
SPLINE
  5
F3
330
EE
100
AcDbEntity
  8
Calque 1
 62
     1
420
 16711680
370
     9
100
AcDbSpline
210
0.0
220
0.0
230
1.0
 70
    11
 71
     3
 72
    35
 73
    31
 74
     0
 42
0.0000000001
 43
0.0000000001
 12
1.0
 22
0.0
 32
0.0
 13
1.0
 23
0.0
 33
0.0
 40
0.0
 40
0.0
 40
0.0
 40
0.0
 40
1.0
 40
1.0
 40
1.0
 40
2.0
 40
2.0
 40
2.0
 40
3.0
 40
3.0
 40
3.0
 40
4.0
 40
4.0
 40
4.0
 40
5.0
 40
5.0
 40
5.0
 40
6.0
 40
6.0
 40
6.0
 40
7.0
 40
7.0
 40
7.0
 40
8.0
 40
8.0
 40
8.0
 40
9.0
 40
9.0
 40
9.0
 40
10.0
 40
10.0
 40
10.0
 40
10.0
 10
198.0951026780768
 20
-93.5065718815668
 30
0.0
 10
195.7908371504259
 20
-91.18711720561286
 30
0.0
 10
192.7534708145558
 20
-89.87678434360417
 30
0.0
 10
188.9847183320816
 20
-89.57306874967122
 30
0.0
 10
188.9847183320816
 20
-89.57306874967122
 30
0.0
 10
188.9847183320816
 20
-96.26158985292042
 30
0.0
 10
188.9847183320816
 20
-96.26158985292042
 30
0.0
 10
190.1390174694539
 20
-96.57152302576101
 30
0.0
 10
191.0851972485649
 20
-97.21277434002577
 30
0.0
 10
191.822907362203
 20
-98.18667488302961
 30
0.0
 10
192.9043610367393
 20
-99.61514174429317
 30
0.0
 10
193.4453828695547
 20
-101.6326497712998
 30
0.0
 10
193.4453828695547
 20
-104.2387786206866
 30
0.0
 10
193.4453828695547
 20
-106.84546792789
 30
0.0
 10
192.9111459343156
 20
-108.856670804453
 30
0.0
 10
191.8426720638382
 20
-110.2721070214702
 30
0.0
 10
191.1101796839333
 20
-111.2429425607862
 30
0.0
 10
190.1573625050198
 20
-111.8806559850809
 30
0.0
 10
188.9847183320816
 20
-112.1858778093981
 30
0.0
 10
188.9847183320816
 20
-112.1858778093981
 30
0.0
 10
188.9847183320816
 20
-118.867288104092
 30
0.0
 10
188.9847183320816
 20
-118.867288104092
 30
0.0
 10
192.7534708145558
 20
-118.5650612262356
 30
0.0
 10
195.7908371504259
 20
-117.2610685432827
 30
0.0
 10
198.0951026780768
 20
-114.9522100229327
 30
0.0
 10
200.7465226526362
 20
-112.296200427827
 30
0.0
 10
202.0719376443683
 20
-108.7251033318958
 30
0.0
 10
202.0719376443683
 20
-104.2387786206866
 30
0.0
 10
202.0719376443683
 20
-99.75315448174669
 30
0.0
 10
200.7465226526362
 20
-96.17547200646526
 30
0.0
 10
198.0951026780768
 20
-93.5065718815668
 30
0.0
  0
ENDBLK
  5
F1
330
EE
100
AcDbEntity
  8
0
100
AcDbBlockEnd
  0
BLOCK
  5
F6
330
F4
100
AcDbEntity
  8
0
100
AcDbBlockBegin
  2
block 5
 70
     0
 10
0.0
 20
0.0
 30
0.0
  3
block 5
  1

  0
POLYLINE
  5
F8
330
F4
100
AcDbEntity
  8
Calque 1
 62
     1
420
 16711680
370
     9
100
AcDb2dPolyline
 66
     1
 10
0.0
 20
0.0
 30
0.0
  0
VERTEX
  5
F9
330
F8
100
AcDbEntity
  8
Calque 1
 62
     1
420
 16711680
370
     9
100
AcDbVertex
100
AcDb2dVertex
 10
35.74057984528923
 20
-129.7347003268879
 30
0.0
  0
VERTEX
  5
FA
330
F8
100
AcDbEntity
  8
Calque 1
 62
     1
420
 16711680
370
     9
100
AcDbVertex
100
AcDb2dVertex
 10
27.76604491945315
 20
-129.7347003268879
 30
0.0
  0
VERTEX
  5
FB
330
F8
100
AcDbEntity
  8
Calque 1
 62
     1
420
 16711680
370
     9
100
AcDbVertex
100
AcDb2dVertex
 10
27.76604491945315
 20
-158.4166895733841
 30
0.0
  0
VERTEX
  5
FC
330
F8
100
AcDbEntity
  8
Calque 1
 62
     1
420
 16711680
370
     9
100
AcDbVertex
100
AcDb2dVertex
 10
35.74057984528923
 20
-158.4166895733841
 30
0.0
  0
VERTEX
  5
FD
330
F8
100
AcDbEntity
  8
Calque 1
 62
     1
420
 16711680
370
     9
100
AcDbVertex
100
AcDb2dVertex
 10
35.74057984528923
 20
-129.7347003268879
 30
0.0
  0
SEQEND
  5
FE
330
F8
100
AcDbEntity
  8
Calque 1
 62
     1
420
 16711680
370
     9
  0
SPLINE
  5
FF
330
F4
100
AcDbEntity
  8
Calque 1
 62
     1
420
 16711680
370
     9
100
AcDbSpline
210
0.0
220
0.0
230
1.0
 70
    11
 71
     3
 72
    35
 73
    31
 74
     0
 42
0.0000000001
 43
0.0000000001
 12
1.0
 22
0.0
 32
0.0
 13
1.0
 23
0.0
 33
0.0
 40
0.0
 40
0.0
 40
0.0
 40
0.0
 40
1.0
 40
1.0
 40
1.0
 40
2.0
 40
2.0
 40
2.0
 40
3.0
 40
3.0
 40
3.0
 40
4.0
 40
4.0
 40
4.0
 40
5.0
 40
5.0
 40
5.0
 40
6.0
 40
6.0
 40
6.0
 40
7.0
 40
7.0
 40
7.0
 40
8.0
 40
8.0
 40
8.0
 40
9.0
 40
9.0
 40
9.0
 40
10.0
 40
10.0
 40
10.0
 40
10.0
 10
47.86179416474804
 20
-132.253397756811
 30
0.0
 10
45.72954580551144
 20
-130.5907646138518
 30
0.0
 10
42.66999224488724
 20
-129.7523022052051
 30
0.0
 10
38.68686752297248
 20
-129.7362240715773
 30
0.0
 10
38.68686752297248
 20
-129.7362240715773
 30
0.0
 10
38.68686752297248
 20
-136.1289810761731
 30
0.0
 10
38.68686752297248
 20
-136.1289810761731
 30
0.0
 10
39.87845359211575
 20
-136.1478439845795
 30
0.0
 10
40.79868083690203
 20
-136.4519098646473
 30
0.0
 10
41.44236618674796
 20
-137.0461527795051
 30
0.0
 10
42.10639369532971
 20
-137.6606947759254
 30
0.0
 10
42.43915054217782
 20
-138.5686364395825
 30
0.0
 10
42.43915054217782
 20
-139.7716591439289
 30
0.0
 10
42.43915054217782
 20
-141.024842822902
 30
0.0
 10
42.06656393429551
 20
-141.9835059190042
 30
0.0
 10
41.32272828513393
 20
-142.6473682033264
 30
0.0
 10
40.68130936758644
 20
-143.2196131488644
 30
0.0
 10
39.80158066713542
 20
-143.5436453386662
 30
0.0
 10
38.68686752297248
 20
-143.6227574624068
 30
0.0
 10
38.68686752297248
 20
-143.6227574624068
 30
0.0
 10
38.68686752297248
 20
-150.0261806798335
 30
0.0
 10
38.68686752297248
 20
-150.0261806798335
 30
0.0
 10
42.51332975664069
 20
-149.9474013279212
 30
0.0
 10
45.51356595393391
 20
-149.0490575043815
 30
0.0
 10
47.68241162158336
 20
-147.3274712047889
 30
0.0
 10
49.95508589670436
 20
-145.5230772627252
 30
0.0
 10
51.09157165277644
 20
-142.954499087082
 30
0.0
 10
51.09157165277644
 20
-139.6211762200446
 30
0.0
 10
51.09157165277644
 20
-136.3884555311701
 30
0.0
 10
50.01497915676644
 20
-133.9325293767597
 30
0.0
 10
47.86179416474804
 20
-132.253397756811
 30
0.0
  0
ENDBLK
  5
F7
330
F4
100
AcDbEntity
  8
0
100
AcDbBlockEnd
  0
BLOCK
  5
102
330
100
100
AcDbEntity
  8
0
100
AcDbBlockBegin
  2
block 6
 70
     0
 10
0.0
 20
0.0
 30
0.0
  3
block 6
  1

  0
SPLINE
  5
104
330
100
100
AcDbEntity
  8
Calque 1
 62
     1
420
 16711680
370
     9
100
AcDbSpline
210
0.0
220
0.0
230
1.0
 70
    11
 71
     3
 72
    35
 73
    31
 74
     0
 42
0.0000000001
 43
0.0000000001
 12
1.0
 22
0.0
 32
0.0
 13
1.0
 23
0.0
 33
0.0
 40
0.0
 40
0.0
 40
0.0
 40
0.0
 40
1.0
 40
1.0
 40
1.0
 40
2.0
 40
2.0
 40
2.0
 40
3.0
 40
3.0
 40
3.0
 40
4.0
 40
4.0
 40
4.0
 40
5.0
 40
5.0
 40
5.0
 40
6.0
 40
6.0
 40
6.0
 40
7.0
 40
7.0
 40
7.0
 40
8.0
 40
8.0
 40
8.0
 40
9.0
 40
9.0
 40
9.0
 40
10.0
 40
10.0
 40
10.0
 40
10.0
 10
75.20728675564347
 20
-149.8212808047737
 30
0.0
 10
73.89834779449725
 20
-149.5548881985969
 30
0.0
 10
72.84718764123839
 20
-148.8995904102915
 30
0.0
 10
72.05527390366422
 20
-147.8534608661128
 30
0.0
 10
70.99175983665073
 20
-146.4503547210711
 30
0.0
 10
70.46030004016649
 20
-144.4327065796118
 30
0.0
 10
70.46030004016649
 20
-141.8013571284571
 30
0.0
 10
70.46030004016649
 20
-139.1700076773011
 30
0.0
 10
70.99175983665073
 20
-137.1464747287613
 30
0.0
 10
72.05527390366422
 20
-135.7304780539284
 30
0.0
 10
72.84718764123839
 20
-134.6757840137316
 30
0.0
 10
73.89834779449725
 20
-134.0142686465186
 30
0.0
 10
75.20728675564347
 20
-133.7452488943248
 30
0.0
 10
75.20728675564347
 20
-133.7452488943248
 30
0.0
 10
75.20728675564347
 20
-127.1142097459386
 30
0.0
 10
75.20728675564347
 20
-127.1142097459386
 30
0.0
 10
71.28247622210797
 20
-127.366941192825
 30
0.0
 10
68.13016613310621
 20
-128.677098911765
 30
0.0
 10
65.75533520876611
 20
-131.0503750524659
 30
0.0
 10
63.09699589676661
 20
-133.7069451053886
 30
0.0
 10
61.76819778704508
 20
-137.2905123877493
 30
0.0
 10
61.76819778704508
 20
-141.8013571284571
 30
0.0
 10
61.76819778704508
 20
-146.3122018691636
 30
0.0
 10
63.09015944524601
 20
-149.8898843444451
 30
0.0
 10
65.73542032824868
 20
-152.5335638675753
 30
0.0
 10
68.10008946187753
 20
-154.8978376545886
 30
0.0
 10
71.25921742508628
 20
-156.2014099941784
 30
0.0
 10
75.20728675564347
 20
-156.4516368951941
 30
0.0
 10
75.20728675564347
 20
-156.4516368951941
 30
0.0
 10
75.20728675564347
 20
-149.8212808047737
 30
0.0
 10
75.20728675564347
 20
-149.8212808047737
 30
0.0
  0
SPLINE
  5
105
330
100
100
AcDbEntity
  8
Calque 1
 62
     1
420
 16711680
370
     9
100
AcDbSpline
210
0.0
220
0.0
230
1.0
 70
    11
 71
     3
 72
    80
 73
    76
 74
     0
 42
0.0000000001
 43
0.0000000001
 12
1.0
 22
0.0
 32
0.0
 13
1.0
 23
0.0
 33
0.0
 40
0.0
 40
0.0
 40
0.0
 40
0.0
 40
1.0
 40
1.0
 40
1.0
 40
2.0
 40
2.0
 40
2.0
 40
3.0
 40
3.0
 40
3.0
 40
4.0
 40
4.0
 40
4.0
 40
5.0
 40
5.0
 40
5.0
 40
6.0
 40
6.0
 40
6.0
 40
7.0
 40
7.0
 40
7.0
 40
8.0
 40
8.0
 40
8.0
 40
9.0
 40
9.0
 40
9.0
 40
10.0
 40
10.0
 40
10.0
 40
11.0
 40
11.0
 40
11.0
 40
12.0
 40
12.0
 40
12.0
 40
13.0
 40
13.0
 40
13.0
 40
14.0
 40
14.0
 40
14.0
 40
15.0
 40
15.0
 40
15.0
 40
16.0
 40
16.0
 40
16.0
 40
17.0
 40
17.0
 40
17.0
 40
18.0
 40
18.0
 40
18.0
 40
19.0
 40
19.0
 40
19.0
 40
20.0
 40
20.0
 40
20.0
 40
21.0
 40
21.0
 40
21.0
 40
22.0
 40
22.0
 40
22.0
 40
23.0
 40
23.0
 40
23.0
 40
24.0
 40
24.0
 40
24.0
 40
25.0
 40
25.0
 40
25.0
 40
25.0
 10
88.84158613886167
 20
-151.0864617838939
 30
0.0
 10
89.71873259267846
 20
-149.8834390795488
 30
0.0
 10
90.39658162281347
 20
-148.4991082713802
 30
0.0
 10
90.87513322926732
 20
-146.9326286726631
 30
0.0
 10
91.35353621720976
 20
-145.3667095317618
 30
0.0
 10
91.59281202043653
 20
-143.656192274058
 30
0.0
 10
91.59281202043653
 20
-141.8013571284571
 30
0.0
 10
91.59281202043653
 20
-137.3157329895172
 30
0.0
 10
90.2570288406833
 20
-133.7380505142358
 30
0.0
 10
87.58561109968794
 20
-131.0691503893376
 30
0.0
 10
85.2128979891339
 20
-128.6986765377231
 30
0.0
 10
82.0675543928499
 20
-127.3835097270428
 30
0.0
 10
78.15357443332736
 20
-127.1184482081796
 30
0.0
 10
78.15357443332736
 20
-127.1184482081796
 30
0.0
 10
78.15357443332736
 20
-133.7641993742633
 30
0.0
 10
78.15357443332736
 20
-133.7641993742633
 30
0.0
 10
79.43150785754854
 20
-134.0454791412069
 30
0.0
 10
80.46949669524255
 20
-134.7058735927859
 30
0.0
 10
81.26575752427304
 20
-135.7492533908001
 30
0.0
 10
82.35542844927859
 20
-137.1775801376098
 30
0.0
 10
82.90056114880434
 20
-139.1952282790704
 30
0.0
 10
82.90056114880434
 20
-141.8013571284571
 30
0.0
 10
82.90056114880434
 20
-142.4027283661744
 30
0.0
 10
82.87380981676633
 20
-142.9797196888512
 30
0.0
 10
82.82090162673562
 20
-143.5306497230339
 30
0.0
 10
82.76725034414912
 20
-144.0821402150323
 30
0.0
 10
82.67436377457344
 20
-144.5960800332872
 30
0.0
 10
82.54179606247529
 20
-145.0719087199817
 30
0.0
 10
82.54179606247529
 20
-145.0719087199817
 30
0.0
 10
79.75059180135482
 20
-142.0644920735716
 30
0.0
 10
79.75059180135482
 20
-142.0644920735716
 30
0.0
 10
79.75059180135482
 20
-142.0644920735716
 30
0.0
 10
78.15357443332736
 20
-143.474551398406
 30
0.0
 10
78.15357443332736
 20
-143.474551398406
 30
0.0
 10
78.15357443332736
 20
-143.474551398406
 30
0.0
 10
78.15357443332736
 20
-143.5042556627101
 30
0.0
 10
78.15357443332736
 20
-143.5042556627101
 30
0.0
 10
78.15357443332736
 20
-143.5042556627101
 30
0.0
 10
78.11993091782664
 20
-143.5042556627101
 30
0.0
 10
78.11993091782664
 20
-143.5042556627101
 30
0.0
 10
78.11993091782664
 20
-143.5042556627101
 30
0.0
 10
74.72669164465894
 20
-146.5002354667913
 30
0.0
 10
74.72669164465894
 20
-146.5002354667913
 30
0.0
 10
74.72669164465894
 20
-146.5002354667913
 30
0.0
 10
78.11697712491419
 20
-149.3600590499368
 30
0.0
 10
78.11697712491419
 20
-149.3600590499368
 30
0.0
 10
78.11697712491419
 20
-149.3600590499368
 30
0.0
 10
78.15357443332736
 20
-149.3600590499368
 30
0.0
 10
78.15357443332736
 20
-149.3600590499368
 30
0.0
 10
78.15357443332736
 20
-149.3600590499368
 30
0.0
 10
78.15357443332736
 20
-149.390919258489
 30
0.0
 10
78.15357443332736
 20
-149.390919258489
 30
0.0
 10
78.15357443332736
 20
-149.390919258489
 30
0.0
 10
78.51453164269819
 20
-149.6954054819211
 30
0.0
 10
78.51453164269819
 20
-149.6954054819211
 30
0.0
 10
78.39987246121368
 20
-149.7387709055169
 30
0.0
 10
78.27800528193067
 20
-149.7733616614149
 30
0.0
 10
78.15357443332736
 20
-149.8049224422381
 30
0.0
 10
78.15357443332736
 20
-149.8049224422381
 30
0.0
 10
78.15357443332736
 20
-156.4402525957858
 30
0.0
 10
78.15357443332736
 20
-156.4402525957858
 30
0.0
 10
79.00896685254894
 20
-156.3791977223383
 30
0.0
 10
79.83617748656204
 20
-156.2715022499264
 30
0.0
 10
80.62788687368334
 20
-156.1048010779604
 30
0.0
 10
81.87702546133615
 20
-155.8416661328459
 30
0.0
 10
83.02019905041742
 20
-155.4723244313946
 30
0.0
 10
84.05696178539257
 20
-154.9959352868831
 30
0.0
 10
84.05696178539257
 20
-154.9959352868831
 30
0.0
 10
87.20678251433037
 20
-158.4166895733841
 30
0.0
 10
87.20678251433037
 20
-158.4166895733841
 30
0.0
 10
87.20678251433037
 20
-158.4166895733841
 30
0.0
 10
92.35032057263962
 20
-154.0184968539092
 30
0.0
 10
92.35032057263962
 20
-154.0184968539092
 30
0.0
 10
92.35032057263962
 20
-154.0184968539092
 30
0.0
 10
88.84158613886167
 20
-151.0864617838939
 30
0.0
 10
88.84158613886167
 20
-151.0864617838939
 30
0.0
  0
ENDBLK
  5
103
330
100
100
AcDbEntity
  8
0
100
AcDbBlockEnd
  0
BLOCK
  5
108
330
106
100
AcDbEntity
  8
0
100
AcDbBlockBegin
  2
block 7
 70
     0
 10
0.0
 20
0.0
 30
0.0
  3
block 7
  1

  0
POLYLINE
  5
10A
330
106
100
AcDbEntity
  8
Calque 1
 62
     1
420
 16711680
370
     9
100
AcDb2dPolyline
 66
     1
 10
0.0
 20
0.0
 30
0.0
  0
VERTEX
  5
10B
330
10A
100
AcDbEntity
  8
Calque 1
 62
     1
420
 16711680
370
     9
100
AcDbVertex
100
AcDb2dVertex
 10
108.5018297362081
 20
-129.7347003268879
 30
0.0
  0
VERTEX
  5
10C
330
10A
100
AcDbEntity
  8
Calque 1
 62
     1
420
 16711680
370
     9
100
AcDbVertex
100
AcDb2dVertex
 10
101.880614974462
 20
-129.7347003268879
 30
0.0
  0
VERTEX
  5
10D
330
10A
100
AcDbEntity
  8
Calque 1
 62
     1
420
 16711680
370
     9
100
AcDbVertex
100
AcDb2dVertex
 10
101.880614974462
 20
-158.4166895733841
 30
0.0
  0
VERTEX
  5
10E
330
10A
100
AcDbEntity
  8
Calque 1
 62
     1
420
 16711680
370
     9
100
AcDbVertex
100
AcDb2dVertex
 10
108.5018297362081
 20
-158.4166895733841
 30
0.0
  0
VERTEX
  5
10F
330
10A
100
AcDbEntity
  8
Calque 1
 62
     1
420
 16711680
370
     9
100
AcDbVertex
100
AcDb2dVertex
 10
108.5018297362081
 20
-129.7347003268879
 30
0.0
  0
SEQEND
  5
110
330
10A
100
AcDbEntity
  8
Calque 1
 62
     1
420
 16711680
370
     9
  0
SPLINE
  5
111
330
106
100
AcDbEntity
  8
Calque 1
 62
     1
420
 16711680
370
     9
100
AcDbSpline
210
0.0
220
0.0
230
1.0
 70
    11
 71
     3
 72
    59
 73
    55
 74
     0
 42
0.0000000001
 43
0.0000000001
 12
1.0
 22
0.0
 32
0.0
 13
1.0
 23
0.0
 33
0.0
 40
0.0
 40
0.0
 40
0.0
 40
0.0
 40
1.0
 40
1.0
 40
1.0
 40
2.0
 40
2.0
 40
2.0
 40
3.0
 40
3.0
 40
3.0
 40
4.0
 40
4.0
 40
4.0
 40
5.0
 40
5.0
 40
5.0
 40
6.0
 40
6.0
 40
6.0
 40
7.0
 40
7.0
 40
7.0
 40
8.0
 40
8.0
 40
8.0
 40
9.0
 40
9.0
 40
9.0
 40
10.0
 40
10.0
 40
10.0
 40
11.0
 40
11.0
 40
11.0
 40
12.0
 40
12.0
 40
12.0
 40
13.0
 40
13.0
 40
13.0
 40
14.0
 40
14.0
 40
14.0
 40
15.0
 40
15.0
 40
15.0
 40
16.0
 40
16.0
 40
16.0
 40
17.0
 40
17.0
 40
17.0
 40
18.0
 40
18.0
 40
18.0
 40
18.0
 10
120.9397501032922
 20
-146.7633704119071
 30
0.0
 10
122.2952995450511
 20
-145.9868561063534
 30
0.0
 10
123.3451407090231
 20
-144.9214257960988
 30
0.0
 10
124.08957083223
 20
-143.5682003967773
 30
0.0
 10
124.833555099903
 20
-142.2149749974559
 30
0.0
 10
125.2061417077846
 20
-140.6866065303005
 30
0.0
 10
125.2061417077846
 20
-138.9822543085826
 30
0.0
 10
125.2061417077846
 20
-135.9249569164523
 30
0.0
 10
124.1426276407715
 20
-133.6195136859262
 30
0.0
 10
122.0161939807901
 20
-132.0653641591833
 30
0.0
 10
119.8893144652752
 20
-130.5117750902587
 30
0.0
 10
116.7530180208675
 20
-129.7347003268879
 30
0.0
 10
112.6064129364998
 20
-129.7347003268879
 30
0.0
 10
112.6064129364998
 20
-129.7347003268879
 30
0.0
 10
111.4481174138917
 20
-129.7347003268879
 30
0.0
 10
111.4481174138917
 20
-129.7347003268879
 30
0.0
 10
111.4481174138917
 20
-129.7347003268879
 30
0.0
 10
111.4481174138917
 20
-136.1253205860555
 30
0.0
 10
111.4481174138917
 20
-136.1253205860555
 30
0.0
 10
111.4481174138917
 20
-136.1253205860555
 30
0.0
 10
112.6064129364998
 20
-136.1253205860555
 30
0.0
 10
112.6064129364998
 20
-136.1253205860555
 30
0.0
 10
113.8554029056419
 20
-136.1253205860555
 30
0.0
 10
114.825435929034
 20
-136.3949007960676
 30
0.0
 10
115.5171064807219
 20
-136.9335007582748
 30
0.0
 10
116.2078853213424
 20
-137.4726611782977
 30
0.0
 10
116.5537205971863
 20
-138.2432906767722
 30
0.0
 10
116.5537205971863
 20
-139.2453892536984
 30
0.0
 10
116.5537205971863
 20
-140.3483702376965
 30
0.0
 10
116.1811339893043
 20
-141.1812105538667
 30
0.0
 10
115.4372983401424
 20
-141.7450311178406
 30
0.0
 10
114.6928682169359
 20
-142.3088516818158
 30
0.0
 10
113.6031972919297
 20
-142.5907619638034
 30
0.0
 10
112.1676910910802
 20
-142.5907619638034
 30
0.0
 10
112.1676910910802
 20
-142.5907619638034
 30
0.0
 10
111.4481174138917
 20
-142.5907619638034
 30
0.0
 10
111.4481174138917
 20
-142.5907619638034
 30
0.0
 10
111.4481174138917
 20
-142.5907619638034
 30
0.0
 10
111.4481174138917
 20
-148.9805415362448
 30
0.0
 10
111.4481174138917
 20
-148.9805415362448
 30
0.0
 10
111.693393689513
 20
-148.9795432207596
 30
0.0
 10
111.9581947220593
 20
-148.9743064430307
 30
0.0
 10
112.2474992316593
 20
-148.9626068860992
 30
0.0
 10
112.5664345569542
 20
-148.9502768141237
 30
0.0
 10
112.8586185502114
 20
-148.931501477252
 30
0.0
 10
113.1246456854762
 20
-148.906280875484
 30
0.0
 10
113.1246456854762
 20
-148.906280875484
 30
0.0
 10
117.351207528935
 20
-158.4166895733841
 30
0.0
 10
117.351207528935
 20
-158.4166895733841
 30
0.0
 10
117.351207528935
 20
-158.4166895733841
 30
0.0
 10
127.0402427559974
 20
-158.4166895733841
 30
0.0
 10
127.0402427559974
 20
-158.4166895733841
 30
0.0
 10
127.0402427559974
 20
-158.4166895733841
 30
0.0
 10
120.9397501032922
 20
-146.7633704119071
 30
0.0
 10
120.9397501032922
 20
-146.7633704119071
 30
0.0
  0
ENDBLK
  5
109
330
106
100
AcDbEntity
  8
0
100
AcDbBlockEnd
  0
ENDSEC
  0
SECTION
  2
ENTITIES
  0
SPLINE
  5
41
330
1F
100
AcDbEntity
  8
Calque 1
 62
     1
420
 16711680
370
     9
100
AcDbSpline
210
0.0
220
0.0
230
1.0
 70
    11
 71
     3
 72
    59
 73
    55
 74
     0
 42
0.0000000001
 43
0.0000000001
 12
1.0
 22
0.0
 32
0.0
 13
1.0
 23
0.0
 33
0.0
 40
0.0
 40
0.0
 40
0.0
 40
0.0
 40
1.0
 40
1.0
 40
1.0
 40
2.0
 40
2.0
 40
2.0
 40
3.0
 40
3.0
 40
3.0
 40
4.0
 40
4.0
 40
4.0
 40
5.0
 40
5.0
 40
5.0
 40
6.0
 40
6.0
 40
6.0
 40
7.0
 40
7.0
 40
7.0
 40
8.0
 40
8.0
 40
8.0
 40
9.0
 40
9.0
 40
9.0
 40
10.0
 40
10.0
 40
10.0
 40
11.0
 40
11.0
 40
11.0
 40
12.0
 40
12.0
 40
12.0
 40
13.0
 40
13.0
 40
13.0
 40
14.0
 40
14.0
 40
14.0
 40
15.0
 40
15.0
 40
15.0
 40
16.0
 40
16.0
 40
16.0
 40
17.0
 40
17.0
 40
17.0
 40
18.0
 40
18.0
 40
18.0
 40
18.0
 10
111.3555286567963
 20
-26.44645056983353
 30
0.0
 10
111.3555286567963
 20
-29.02791927526929
 30
0.0
 10
111.9131904678342
 20
-30.97032595478779
 30
0.0
 10
113.0291378726968
 20
-32.27311015057264
 30
0.0
 10
114.1443055490759
 20
-33.57645480417451
 30
0.0
 10
115.8179147649767
 20
-34.22784690206694
 30
0.0
 10
118.0496536290053
 20
-34.22784690206694
 30
0.0
 10
119.4721902733808
 20
-34.22784690206694
 30
0.0
 10
120.9221733603591
 20
-34.01515316048798
 30
0.0
 10
122.4008504555104
 20
-33.58878487614999
 30
0.0
 10
123.8789037678754
 20
-33.16297704962901
 30
0.0
 10
125.2178535188747
 20
-32.57379576943163
 30
0.0
 10
126.4173878171142
 20
-31.82194160782912
 30
0.0
 10
126.4173878171142
 20
-31.82194160782912
 30
0.0
 10
126.4173878171142
 20
-39.03937726163311
 30
0.0
 10
126.4173878171142
 20
-39.03937726163311
 30
0.0
 10
125.0785940118119
 20
-39.74135067751637
 30
0.0
 10
123.5442443029745
 20
-40.27406583264369
 30
0.0
 10
121.8151184190841
 20
-40.63710238365229
 30
0.0
 10
120.0853687524085
 20
-40.99999882020664
 30
0.0
 10
118.2863791964425
 20
-41.18214761075508
 30
0.0
 10
116.4179938054894
 20
-41.18214761075508
 30
0.0
 10
112.0387267535963
 20
-41.18214761075508
 30
0.0
 10
108.5798512030304
 20
-39.84181274122646
 30
0.0
 10
106.0421468822748
 20
-37.15988197208093
 30
0.0
 10
103.5036628330367
 20
-34.47865177520667
 30
0.0
 10
102.2347326998104
 20
-30.91974463679696
 30
0.0
 10
102.2347326998104
 20
-26.48400124357762
 30
0.0
 10
102.2347326998104
 20
-21.97315650287043
 30
0.0
 10
103.580232170066
 20
-18.38958922050976
 30
0.0
 10
106.2721667847587
 20
-15.73301916758646
 30
0.0
 10
108.9636335623602
 20
-13.07700957248048
 30
0.0
 10
112.6799754580114
 20
-11.74830420265608
 30
0.0
 10
117.4221281458905
 20
-11.74830420265608
 30
0.0
 10
119.0955814160946
 20
-11.74830420265608
 30
0.0
 10
120.65020406549
 20
-11.89290231946074
 30
0.0
 10
122.0870877139533
 20
-12.18069740852724
 30
0.0
 10
123.52334757963
 20
-12.46905295541138
 30
0.0
 10
124.8967613295773
 20
-12.90130604682797
 30
0.0
 10
126.2081086922781
 20
-13.47759679723286
 30
0.0
 10
126.2081086922781
 20
-13.47759679723286
 30
0.0
 10
126.2081086922781
 20
-20.8829259342106
 30
0.0
 10
126.2081086922781
 20
-20.8829259342106
 30
0.0
 10
124.9805041686509
 20
-20.10655174311074
 30
0.0
 10
123.7461939800696
 20
-19.54259106468197
 30
0.0
 10
122.5054900179287
 20
-19.19132412783151
 30
0.0
 10
121.2640063273039
 20
-18.84075776325296
 30
0.0
 10
119.8625223519686
 20
-18.66505423760077
 30
0.0
 10
118.3007262005293
 20
-18.66505423760077
 30
0.0
 10
115.929727829438
 20
-18.66505423760077
 30
0.0
 10
114.1797052222045
 20
-19.30411626351772
 30
0.0
 10
113.0500345960409
 20
-20.58224031535097
 30
0.0
 10
111.9203639698777
 20
-21.86036436718455
 30
0.0
 10
111.3555286567963
 20
-23.81510111867884
 30
0.0
 10
111.3555286567963
 20
-26.44645056983353
 30
0.0
  0
POLYLINE
  5
42
330
1F
100
AcDbEntity
  8
Calque 1
 62
     1
420
 16711680
370
     9
100
AcDb2dPolyline
 66
     1
 10
0.0
 20
0.0
 30
0.0
  0
VERTEX
  5
43
330
42
100
AcDbEntity
  8
Calque 1
 62
     1
420
 16711680
370
     9
100
AcDbVertex
100
AcDb2dVertex
 10
202.0719376443683
 20
-35.01725173741322
 30
0.0
  0
VERTEX
  5
44
330
42
100
AcDbEntity
  8
Calque 1
 62
     1
420
 16711680
370
     9
100
AcDbVertex
100
AcDb2dVertex
 10
202.0719376443683
 20
-41.18214761075508
 30
0.0
  0
VERTEX
  5
45
330
42
100
AcDbEntity
  8
Calque 1
 62
     1
420
 16711680
370
     9
100
AcDbVertex
100
AcDb2dVertex
 10
180.9854283873415
 20
-41.18214761075508
 30
0.0
  0
VERTEX
  5
46
330
42
100
AcDbEntity
  8
Calque 1
 62
     1
420
 16711680
370
     9
100
AcDbVertex
100
AcDb2dVertex
 10
180.9854283873415
 20
-12.50015836425858
 30
0.0
  0
VERTEX
  5
47
330
42
100
AcDbEntity
  8
Calque 1
 62
     1
420
 16711680
370
     9
100
AcDbVertex
100
AcDb2dVertex
 10
201.5697925013196
 20
-12.50015836425858
 30
0.0
  0
VERTEX
  5
48
330
42
100
AcDbEntity
  8
Calque 1
 62
     1
420
 16711680
370
     9
100
AcDbVertex
100
AcDb2dVertex
 10
201.5697925013196
 20
-18.66505423760077
 30
0.0
  0
VERTEX
  5
49
330
42
100
AcDbEntity
  8
Calque 1
 62
     1
420
 16711680
370
     9
100
AcDbVertex
100
AcDb2dVertex
 10
190.1062243443271
 20
-18.66505423760077
 30
0.0
  0
VERTEX
  5
4A
330
42
100
AcDbEntity
  8
Calque 1
 62
     1
420
 16711680
370
     9
100
AcDbVertex
100
AcDb2dVertex
 10
190.1062243443271
 20
-23.55196617356331
 30
0.0
  0
VERTEX
  5
4B
330
42
100
AcDbEntity
  8
Calque 1
 62
     1
420
 16711680
370
     9
100
AcDbVertex
100
AcDb2dVertex
 10
200.73298789337
 20
-23.55196617356331
 30
0.0
  0
VERTEX
  5
4C
330
42
100
AcDbEntity
  8
Calque 1
 62
     1
420
 16711680
370
     9
100
AcDbVertex
100
AcDb2dVertex
 10
200.73298789337
 20
-29.71686204690549
 30
0.0
  0
VERTEX
  5
4D
330
42
100
AcDbEntity
  8
Calque 1
 62
     1
420
 16711680
370
     9
100
AcDbVertex
100
AcDb2dVertex
 10
190.1062243443271
 20
-29.71686204690549
 30
0.0
  0
VERTEX
  5
4E
330
42
100
AcDbEntity
  8
Calque 1
 62
     1
420
 16711680
370
     9
100
AcDbVertex
100
AcDb2dVertex
 10
190.1062243443271
 20
-35.01725173741322
 30
0.0
  0
VERTEX
  5
4F
330
42
100
AcDbEntity
  8
Calque 1
 62
     1
420
 16711680
370
     9
100
AcDbVertex
100
AcDb2dVertex
 10
202.0719376443683
 20
-35.01725173741322
 30
0.0
  0
SEQEND
  5
50
330
42
100
AcDbEntity
  8
Calque 1
 62
     1
420
 16711680
370
     9
  0
POLYLINE
  5
51
330
1F
100
AcDbEntity
  8
Calque 1
 62
     1
420
 16711680
370
     9
100
AcDb2dPolyline
 66
     1
 10
0.0
 20
0.0
 30
0.0
  0
VERTEX
  5
52
330
51
100
AcDbEntity
  8
Calque 1
 62
     1
420
 16711680
370
     9
100
AcDbVertex
100
AcDb2dVertex
 10
26.64325393780389
 20
-51.0330756669948
 30
0.0
  0
VERTEX
  5
53
330
51
100
AcDbEntity
  8
Calque 1
 62
     1
420
 16711680
370
     9
100
AcDbVertex
100
AcDb2dVertex
 10
47.36589294374118
 20
-51.0330756669948
 30
0.0
  0
VERTEX
  5
54
330
51
100
AcDbEntity
  8
Calque 1
 62
     1
420
 16711680
370
     9
100
AcDbVertex
100
AcDb2dVertex
 10
47.36589294374118
 20
-57.19797154033666
 30
0.0
  0
VERTEX
  5
55
330
51
100
AcDbEntity
  8
Calque 1
 62
     1
420
 16711680
370
     9
100
AcDbVertex
100
AcDb2dVertex
 10
35.80648761011017
 20
-57.19797154033666
 30
0.0
  0
VERTEX
  5
56
330
51
100
AcDbEntity
  8
Calque 1
 62
     1
420
 16711680
370
     9
100
AcDbVertex
100
AcDb2dVertex
 10
35.80648761011017
 20
-62.08488347629952
 30
0.0
  0
VERTEX
  5
57
330
51
100
AcDbEntity
  8
Calque 1
 62
     1
420
 16711680
370
     9
100
AcDbVertex
100
AcDb2dVertex
 10
46.52518043330115
 20
-62.08488347629952
 30
0.0
  0
VERTEX
  5
58
330
51
100
AcDbEntity
  8
Calque 1
 62
     1
420
 16711680
370
     9
100
AcDbVertex
100
AcDb2dVertex
 10
46.52518043330115
 20
-68.24977934964139
 30
0.0
  0
VERTEX
  5
59
330
51
100
AcDbEntity
  8
Calque 1
 62
     1
420
 16711680
370
     9
100
AcDbVertex
100
AcDb2dVertex
 10
35.80648761011017
 20
-68.24977934964139
 30
0.0
  0
VERTEX
  5
5A
330
51
100
AcDbEntity
  8
Calque 1
 62
     1
420
 16711680
370
     9
100
AcDbVertex
100
AcDb2dVertex
 10
35.80648761011017
 20
-79.71506491349129
 30
0.0
  0
VERTEX
  5
5B
330
51
100
AcDbEntity
  8
Calque 1
 62
     1
420
 16711680
370
     9
100
AcDbVertex
100
AcDb2dVertex
 10
26.64325393780389
 20
-79.71506491349129
 30
0.0
  0
VERTEX
  5
5C
330
51
100
AcDbEntity
  8
Calque 1
 62
     1
420
 16711680
370
     9
100
AcDbVertex
100
AcDb2dVertex
 10
26.64325393780389
 20
-51.0330756669948
 30
0.0
  0
SEQEND
  5
5D
330
51
100
AcDbEntity
  8
Calque 1
 62
     1
420
 16711680
370
     9
  0
SPLINE
  5
5E
330
1F
100
AcDbEntity
  8
Calque 1
 62
     1
420
 16711680
370
     9
100
AcDbSpline
210
0.0
220
0.0
230
1.0
 70
    11
 71
     3
 72
    71
 73
    67
 74
     0
 42
0.0000000001
 43
0.0000000001
 12
1.0
 22
0.0
 32
0.0
 13
1.0
 23
0.0
 33
0.0
 40
0.0
 40
0.0
 40
0.0
 40
0.0
 40
1.0
 40
1.0
 40
1.0
 40
2.0
 40
2.0
 40
2.0
 40
3.0
 40
3.0
 40
3.0
 40
4.0
 40
4.0
 40
4.0
 40
5.0
 40
5.0
 40
5.0
 40
6.0
 40
6.0
 40
6.0
 40
7.0
 40
7.0
 40
7.0
 40
8.0
 40
8.0
 40
8.0
 40
9.0
 40
9.0
 40
9.0
 40
10.0
 40
10.0
 40
10.0
 40
11.0
 40
11.0
 40
11.0
 40
12.0
 40
12.0
 40
12.0
 40
13.0
 40
13.0
 40
13.0
 40
14.0
 40
14.0
 40
14.0
 40
15.0
 40
15.0
 40
15.0
 40
16.0
 40
16.0
 40
16.0
 40
17.0
 40
17.0
 40
17.0
 40
18.0
 40
18.0
 40
18.0
 40
19.0
 40
19.0
 40
19.0
 40
20.0
 40
20.0
 40
20.0
 40
21.0
 40
21.0
 40
21.0
 40
22.0
 40
22.0
 40
22.0
 40
22.0
 10
76.18344010897137
 20
-63.32531673993475
 30
0.0
 10
76.18344010897137
 20
-63.32531673993475
 30
0.0
 10
89.33997986888379
 20
-63.32531673993475
 30
0.0
 10
89.33997986888379
 20
-63.32531673993475
 30
0.0
 10
89.33997986888379
 20
-63.32531673993475
 30
0.0
 10
89.33997986888379
 20
-77.76032816199667
 30
0.0
 10
89.33997986888379
 20
-77.76032816199667
 30
0.0
 10
86.9297075504697
 20
-78.6378649890782
 30
0.0
 10
84.86349126502749
 20
-79.24512103387603
 30
0.0
 10
83.14007762081565
 20
-79.58349744093368
 30
0.0
 10
81.4166639766038
 20
-79.92187384799068
 30
0.0
 10
79.63026739739442
 20
-80.09099199429271
 30
0.0
 10
77.78057453525247
 20
-80.09099199429271
 30
0.0
 10
72.87667934763179
 20
-80.09099199429271
 30
0.0
 10
68.98834481835466
 20
-78.79409260558675
 30
0.0
 10
66.11651099122753
 20
-76.20029382817584
 30
0.0
 10
63.24373712029395
 20
-73.6064950507646
 30
0.0
 10
61.80797688069807
 20
-70.00429254598677
 30
0.0
 10
61.80797688069807
 20
-65.39284562711492
 30
0.0
 10
61.80797688069807
 20
-60.73165807697808
 30
0.0
 10
63.32113406031623
 20
-57.11054012087332
 30
0.0
 10
66.3474484195519
 20
-54.52907141543788
 30
0.0
 10
69.37407612672294
 20
-51.94816316781944
 30
0.0
 10
73.53533670765592
 20
-50.65714858619338
 30
0.0
 10
78.83154351028651
 20
-50.65714858619338
 30
0.0
 10
80.73701230491393
 20
-50.65714858619338
 30
0.0
 10
82.48862726330357
 20
-50.80174670299805
 30
0.0
 10
84.08576168958467
 20
-51.08954179206486
 30
0.0
 10
85.68320946380115
 20
-51.37789733894837
 30
0.0
 10
87.34990713172171
 20
-51.86017129053909
 30
0.0
 10
89.08773478095799
 20
-52.53678399020014
 30
0.0
 10
89.08773478095799
 20
-52.53678399020014
 30
0.0
 10
89.08773478095799
 20
-59.79177031774758
 30
0.0
 10
89.08773478095799
 20
-59.79177031774758
 30
0.0
 10
87.40630976007826
 20
-58.86491320276414
 30
0.0
 10
85.79476132877208
 20
-58.18830050310374
 30
0.0
 10
84.25402953084657
 20
-57.76193221876574
 30
0.0
 10
82.71235768911556
 20
-57.33612439224508
 30
0.0
 10
81.10143595368046
 20
-57.1228701928488
 30
0.0
 10
79.42001093280041
 20
-57.1228701928488
 30
0.0
 10
76.53344975271379
 20
-57.1228701928488
 30
0.0
 10
74.4036238364033
 20
-57.79359808543028
 30
0.0
 10
73.03084653180495
 20
-59.13393295495891
 30
0.0
 10
71.65744253133553
 20
-60.47496839675912
 30
0.0
 10
70.97121055300437
 20
-62.54894254883521
 30
0.0
 10
70.97121055300437
 20
-65.35529495337116
 30
0.0
 10
70.97121055300437
 20
-68.18756853194633
 30
0.0
 10
71.55247097300654
 20
-70.28620282797404
 30
0.0
 10
72.71561850888162
 20
-71.65175829927095
 30
0.0
 10
73.87813934888628
 20
-73.01801434283912
 30
0.0
 10
75.69273724227409
 20
-73.70051184957876
 30
0.0
 10
78.15909884110839
 20
-73.70051184957876
 30
0.0
 10
78.49532117569713
 20
-73.70051184957876
 30
0.0
 10
78.83812381692782
 20
-73.68173651270703
 30
0.0
 10
79.188760156541
 20
-73.64404572450901
 30
0.0
 10
79.53876980028373
 20
-73.6064950507646
 30
0.0
 10
79.8680984802958
 20
-73.55016904014943
 30
0.0
 10
80.1767461965775
 20
-73.47492757820699
 30
0.0
 10
80.1767461965775
 20
-73.47492757820699
 30
0.0
 10
80.1767461965775
 20
-69.49035272773119
 30
0.0
 10
80.1767461965775
 20
-69.49035272773119
 30
0.0
 10
80.1767461965775
 20
-69.49035272773119
 30
0.0
 10
76.18344010897137
 20
-69.49035272773119
 30
0.0
 10
76.18344010897137
 20
-69.49035272773119
 30
0.0
 10
76.18344010897137
 20
-69.49035272773119
 30
0.0
 10
76.18344010897137
 20
-63.32531673993475
 30
0.0
 10
76.18344010897137
 20
-63.32531673993475
 30
0.0
  0
POLYLINE
  5
5F
330
1F
100
AcDbEntity
  8
Calque 1
 62
     1
420
 16711680
370
     9
100
AcDb2dPolyline
 66
     1
 10
0.0
 20
0.0
 30
0.0
  0
VERTEX
  5
60
330
5F
100
AcDbEntity
  8
Calque 1
 62
     1
420
 16711680
370
     9
100
AcDbVertex
100
AcDb2dVertex
 10
110.437740417942
 20
-68.24984940686866
 30
0.0
  0
VERTEX
  5
61
330
5F
100
AcDbEntity
  8
Calque 1
 62
     1
420
 16711680
370
     9
100
AcDbVertex
100
AcDb2dVertex
 10
110.437740417942
 20
-79.52710137309026
 30
0.0
  0
VERTEX
  5
62
330
5F
100
AcDbEntity
  8
Calque 1
 62
     1
420
 16711680
370
     9
100
AcDbVertex
100
AcDb2dVertex
 10
101.2745067456357
 20
-79.52710137309026
 30
0.0
  0
VERTEX
  5
63
330
5F
100
AcDbEntity
  8
Calque 1
 62
     1
420
 16711680
370
     9
100
AcDbVertex
100
AcDb2dVertex
 10
101.2745067456357
 20
-50.84511212659409
 30
0.0
  0
VERTEX
  5
64
330
5F
100
AcDbEntity
  8
Calque 1
 62
     1
420
 16711680
370
     9
100
AcDbVertex
100
AcDb2dVertex
 10
110.437740417942
 20
-50.84511212659409
 30
0.0
  0
VERTEX
  5
65
330
5F
100
AcDbEntity
  8
Calque 1
 62
     1
420
 16711680
370
     9
100
AcDbVertex
100
AcDb2dVertex
 10
110.437740417942
 20
-61.70888633827082
 30
0.0
  0
VERTEX
  5
66
330
5F
100
AcDbEntity
  8
Calque 1
 62
     1
420
 16711680
370
     9
100
AcDbVertex
100
AcDb2dVertex
 10
119.516996843584
 20
-61.70888633827082
 30
0.0
  0
VERTEX
  5
67
330
5F
100
AcDbEntity
  8
Calque 1
 62
     1
420
 16711680
370
     9
100
AcDbVertex
100
AcDb2dVertex
 10
119.516996843584
 20
-50.84511212659409
 30
0.0
  0
VERTEX
  5
68
330
5F
100
AcDbEntity
  8
Calque 1
 62
     1
420
 16711680
370
     9
100
AcDbVertex
100
AcDb2dVertex
 10
128.6802305158903
 20
-50.84511212659409
 30
0.0
  0
VERTEX
  5
69
330
5F
100
AcDbEntity
  8
Calque 1
 62
     1
420
 16711680
370
     9
100
AcDbVertex
100
AcDb2dVertex
 10
128.6802305158903
 20
-79.52710137309026
 30
0.0
  0
VERTEX
  5
6A
330
5F
100
AcDbEntity
  8
Calque 1
 62
     1
420
 16711680
370
     9
100
AcDbVertex
100
AcDb2dVertex
 10
119.516996843584
 20
-79.52710137309026
 30
0.0
  0
VERTEX
  5
6B
330
5F
100
AcDbEntity
  8
Calque 1
 62
     1
420
 16711680
370
     9
100
AcDbVertex
100
AcDb2dVertex
 10
119.516996843584
 20
-68.24984940686866
 30
0.0
  0
VERTEX
  5
6C
330
5F
100
AcDbEntity
  8
Calque 1
 62
     1
420
 16711680
370
     9
100
AcDbVertex
100
AcDb2dVertex
 10
110.437740417942
 20
-68.24984940686866
 30
0.0
  0
SEQEND
  5
6D
330
5F
100
AcDbEntity
  8
Calque 1
 62
     1
420
 16711680
370
     9
  0
SPLINE
  5
6E
330
1F
100
AcDbEntity
  8
Calque 1
 62
     1
420
 16711680
370
     9
100
AcDbSpline
210
0.0
220
0.0
230
1.0
 70
    11
 71
     3
 72
    83
 73
    79
 74
     0
 42
0.0000000001
 43
0.0000000001
 12
1.0
 22
0.0
 32
0.0
 13
1.0
 23
0.0
 33
0.0
 40
0.0
 40
0.0
 40
0.0
 40
0.0
 40
1.0
 40
1.0
 40
1.0
 40
2.0
 40
2.0
 40
2.0
 40
3.0
 40
3.0
 40
3.0
 40
4.0
 40
4.0
 40
4.0
 40
5.0
 40
5.0
 40
5.0
 40
6.0
 40
6.0
 40
6.0
 40
7.0
 40
7.0
 40
7.0
 40
8.0
 40
8.0
 40
8.0
 40
9.0
 40
9.0
 40
9.0
 40
10.0
 40
10.0
 40
10.0
 40
11.0
 40
11.0
 40
11.0
 40
12.0
 40
12.0
 40
12.0
 40
13.0
 40
13.0
 40
13.0
 40
14.0
 40
14.0
 40
14.0
 40
15.0
 40
15.0
 40
15.0
 40
16.0
 40
16.0
 40
16.0
 40
17.0
 40
17.0
 40
17.0
 40
18.0
 40
18.0
 40
18.0
 40
19.0
 40
19.0
 40
19.0
 40
20.0
 40
20.0
 40
20.0
 40
21.0
 40
21.0
 40
21.0
 40
22.0
 40
22.0
 40
22.0
 40
23.0
 40
23.0
 40
23.0
 40
24.0
 40
24.0
 40
24.0
 40
25.0
 40
25.0
 40
25.0
 40
26.0
 40
26.0
 40
26.0
 40
26.0
 10
33.6522471285495
 20
-107.8981217219973
 30
0.0
 10
33.6522471285495
 20
-107.8981217219973
 30
0.0
 10
33.54874282900351
 20
-118.8366955075601
 30
0.0
 10
33.54874282900351
 20
-118.8366955075601
 30
0.0
 10
33.54874282900351
 20
-118.8366955075601
 30
0.0
 10
24.9223890371945
 20
-118.7630375102839
 30
0.0
 10
24.9223890371945
 20
-118.7630375102839
 30
0.0
 10
24.9223890371945
 20
-118.7630375102839
 30
0.0
 10
25.19377627121168
 20
-90.08220688983538
 30
0.0
 10
25.19377627121168
 20
-90.08220688983538
 30
0.0
 10
25.19377627121168
 20
-90.08220688983538
 30
0.0
 10
33.820130063021
 20
-90.15586488711126
 30
0.0
 10
33.820130063021
 20
-90.15586488711126
 30
0.0
 10
33.820130063021
 20
-90.15586488711126
 30
0.0
 10
33.71876022810112
 20
-100.8688635139132
 30
0.0
 10
33.71876022810112
 20
-100.8688635139132
 30
0.0
 10
34.58925692102856
 20
-100.8762964391773
 30
0.0
 10
35.21737151188939
 20
-100.7002041838848
 30
0.0
 10
35.60355310490008
 20
-100.339889982238
 30
0.0
 10
35.98899061006372
 20
-99.98027002760865
 30
0.0
 10
36.45046723833696
 20
-99.30098476780674
 30
0.0
 10
36.98797503519283
 20
-98.30287485560032
 30
0.0
 10
37.22970446105766
 20
-97.85389226626903
 30
0.0
 10
37.51179028989471
 20
-97.31767919729431
 30
0.0
 10
37.83423782472251
 20
-96.69367521349734
 30
0.0
 10
38.15682754834707
 20
-96.0702329242697
 30
0.0
 10
38.54653928578015
 20
-95.25890221694067
 30
0.0
 10
39.00499146972376
 20
-94.26011727119634
 30
0.0
 10
39.21954760545549
 20
-93.86134589804155
 30
0.0
 10
39.44847540268184
 20
-93.39347790387723
 30
0.0
 10
39.69103872808079
 20
-92.856366882956
 30
0.0
 10
39.93345058440099
 20
-92.31967492902702
 30
0.0
 10
40.35050796004158
 20
-91.43991886226902
 30
0.0
 10
40.94280479952716
 20
-90.2166833938639
 30
0.0
 10
40.94280479952716
 20
-90.2166833938639
 30
0.0
 10
50.95410673545454
 20
-90.3021670719647
 30
0.0
 10
50.95410673545454
 20
-90.3021670719647
 30
0.0
 10
50.95410673545454
 20
-90.3021670719647
 30
0.0
 10
44.44478990612875
 20
-100.6973044751882
 30
0.0
 10
44.44478990612875
 20
-100.6973044751882
 30
0.0
 10
43.88227411573182
 20
-101.5947347291058
 30
0.0
 10
43.34737275207712
 20
-102.3173907517952
 30
0.0
 10
42.84127768147508
 20
-102.8640216392354
 30
0.0
 10
42.33473483241029
 20
-103.4112091836786
 30
0.0
 10
41.81648774629725
 20
-103.8079479060872
 30
0.0
 10
41.2866892179694
 20
-104.0536786306754
 30
0.0
 10
41.2866892179694
 20
-104.0536786306754
 30
0.0
 10
41.28526668347002
 20
-104.2040153669171
 30
0.0
 10
41.28526668347002
 20
-104.2040153669171
 30
0.0
 10
41.75757726623188
 20
-104.484225039198
 30
0.0
 10
42.24791070358625
 20
-104.9330129811748
 30
0.0
 10
42.75655402463734
 20
-105.5512223643933
 30
0.0
 10
43.26519336842463
 20
-106.1698520739965
 30
0.0
 10
43.81784230018643
 20
-106.9698927569726
 30
0.0
 10
44.415670148407
 20
-107.9524753588032
 30
0.0
 10
44.415670148407
 20
-107.9524753588032
 30
0.0
 10
51.03876474317388
 20
-118.9860378621165
 30
0.0
 10
51.03876474317388
 20
-118.9860378621165
 30
0.0
 10
51.03876474317388
 20
-118.9860378621165
 30
0.0
 10
41.02746280724585
 20
-118.9005541840154
 30
0.0
 10
41.02746280724585
 20
-118.9005541840154
 30
0.0
 10
40.40604287121199
 20
-117.6676557316255
 30
0.0
 10
39.95924201136067
 20
-116.7803833034
 30
0.0
 10
39.68735388556772
 20
-116.2388795269186
 30
0.0
 10
39.41546045675787
 20
-115.6979361856125
 30
0.0
 10
39.17577725762816
 20
-115.2135961643869
 30
0.0
 10
38.96904572451845
 20
-114.7854454338124
 30
0.0
 10
38.47682201593471
 20
-113.8037645558871
 30
0.0
 10
38.06892353952452
 20
-112.9985143308762
 30
0.0
 10
37.74535692406047
 20
-112.3689942148107
 30
0.0
 10
37.42104622074777
 20
-111.7401683457611
 30
0.0
 10
37.12939551748171
 20
-111.1983557020997
 30
0.0
 10
36.87024273914747
 20
-110.745096221173
 30
0.0
 10
36.24764023016557
 20
-109.6371748132639
 30
0.0
 10
35.74643512300153
 20
-108.8875962754474
 30
0.0
 10
35.36796279851855
 20
-108.4955312894734
 30
0.0
 10
34.98904269557249
 20
-108.1040229605068
 30
0.0
 10
34.41699219002517
 20
-107.9046516639658
 30
0.0
 10
33.6522471285495
 20
-107.8981217219973
 30
0.0
  0
POLYLINE
  5
6F
330
1F
100
AcDbEntity
  8
Calque 1
 62
     1
420
 16711680
370
     9
100
AcDb2dPolyline
 66
     1
 10
0.0
 20
0.0
 30
0.0
  0
VERTEX
  5
70
330
6F
100
AcDbEntity
  8
Calque 1
 62
     1
420
 16711680
370
     9
100
AcDbVertex
100
AcDb2dVertex
 10
85.37734573291745
 20
-112.3342940450798
 30
0.0
  0
VERTEX
  5
71
330
6F
100
AcDbEntity
  8
Calque 1
 62
     1
420
 16711680
370
     9
100
AcDbVertex
100
AcDb2dVertex
 10
85.37734573291745
 20
-118.8751169992237
 30
0.0
  0
VERTEX
  5
72
330
6F
100
AcDbEntity
  8
Calque 1
 62
     1
420
 16711680
370
     9
100
AcDbVertex
100
AcDb2dVertex
 10
65.43313930768652
 20
-118.8751169992237
 30
0.0
  0
VERTEX
  5
73
330
6F
100
AcDbEntity
  8
Calque 1
 62
     1
420
 16711680
370
     9
100
AcDbVertex
100
AcDb2dVertex
 10
65.43313930768652
 20
-90.19312775272752
 30
0.0
  0
VERTEX
  5
74
330
6F
100
AcDbEntity
  8
Calque 1
 62
     1
420
 16711680
370
     9
100
AcDbVertex
100
AcDb2dVertex
 10
74.05984158027427
 20
-90.19312775272752
 30
0.0
  0
VERTEX
  5
75
330
6F
100
AcDbEntity
  8
Calque 1
 62
     1
420
 16711680
370
     9
100
AcDbVertex
100
AcDb2dVertex
 10
74.05984158027427
 20
-112.3342940450798
 30
0.0
  0
VERTEX
  5
76
330
6F
100
AcDbEntity
  8
Calque 1
 62
     1
420
 16711680
370
     9
100
AcDbVertex
100
AcDb2dVertex
 10
85.37734573291745
 20
-112.3342940450798
 30
0.0
  0
SEQEND
  5
77
330
6F
100
AcDbEntity
  8
Calque 1
 62
     1
420
 16711680
370
     9
  0
SPLINE
  5
78
330
1F
100
AcDbEntity
  8
Calque 1
 62
     1
420
 16711680
370
     9
100
AcDbSpline
210
0.0
220
0.0
230
1.0
 70
    11
 71
     3
 72
    89
 73
    85
 74
     0
 42
0.0000000001
 43
0.0000000001
 12
1.0
 22
0.0
 32
0.0
 13
1.0
 23
0.0
 33
0.0
 40
0.0
 40
0.0
 40
0.0
 40
0.0
 40
1.0
 40
1.0
 40
1.0
 40
2.0
 40
2.0
 40
2.0
 40
3.0
 40
3.0
 40
3.0
 40
4.0
 40
4.0
 40
4.0
 40
5.0
 40
5.0
 40
5.0
 40
6.0
 40
6.0
 40
6.0
 40
7.0
 40
7.0
 40
7.0
 40
8.0
 40
8.0
 40
8.0
 40
9.0
 40
9.0
 40
9.0
 40
10.0
 40
10.0
 40
10.0
 40
11.0
 40
11.0
 40
11.0
 40
12.0
 40
12.0
 40
12.0
 40
13.0
 40
13.0
 40
13.0
 40
14.0
 40
14.0
 40
14.0
 40
15.0
 40
15.0
 40
15.0
 40
16.0
 40
16.0
 40
16.0
 40
17.0
 40
17.0
 40
17.0
 40
18.0
 40
18.0
 40
18.0
 40
19.0
 40
19.0
 40
19.0
 40
20.0
 40
20.0
 40
20.0
 40
21.0
 40
21.0
 40
21.0
 40
22.0
 40
22.0
 40
22.0
 40
23.0
 40
23.0
 40
23.0
 40
24.0
 40
24.0
 40
24.0
 40
25.0
 40
25.0
 40
25.0
 40
26.0
 40
26.0
 40
26.0
 40
27.0
 40
27.0
 40
27.0
 40
28.0
 40
28.0
 40
28.0
 40
28.0
 10
103.8301145945428
 20
-110.0411808865291
 30
0.0
 10
103.8301145945428
 20
-110.0411808865291
 30
0.0
 10
103.7113788869593
 20
-118.8751169992237
 30
0.0
 10
103.7113788869593
 20
-118.8751169992237
 30
0.0
 10
103.7113788869593
 20
-118.8751169992237
 30
0.0
 10
95.04514721110144
 20
-118.8751169992237
 30
0.0
 10
95.04514721110144
 20
-118.8751169992237
 30
0.0
 10
95.04514721110144
 20
-118.8751169992237
 30
0.0
 10
97.14241805101342
 20
-90.19312775272752
 30
0.0
 10
97.14241805101342
 20
-90.19312775272752
 30
0.0
 10
97.14241805101342
 20
-90.19312775272752
 30
0.0
 10
105.808649726871
 20
-90.19312775272752
 30
0.0
 10
105.808649726871
 20
-90.19312775272752
 30
0.0
 10
105.808649726871
 20
-90.19312775272752
 30
0.0
 10
111.1904009847559
 20
-104.9288247936491
 30
0.0
 10
111.1904009847559
 20
-104.9288247936491
 30
0.0
 10
111.559587911565
 20
-106.0065851758789
 30
0.0
 10
111.8631383292134
 20
-106.9341428631339
 30
0.0
 10
112.1006097443801
 20
-107.7105170542325
 30
0.0
 10
112.3380811595471
 20
-108.4875918176032
 30
0.0
 10
112.5223058785181
 20
-109.1766747036947
 30
0.0
 10
112.654611381254
 20
-109.7780459414133
 30
0.0
 10
112.654611381254
 20
-109.7780459414133
 30
0.0
 10
112.8128764921073
 20
-109.7780459414133
 30
0.0
 10
112.8128764921073
 20
-109.7780459414133
 30
0.0
 10
112.9180424045385
 20
-109.1766747036947
 30
0.0
 10
113.0830924129681
 20
-108.481146552707
 30
0.0
 10
113.3075840240762
 20
-107.6917417173607
 30
0.0
 10
113.5313381463171
 20
-106.9023368820145
 30
0.0
 10
113.841820959315
 20
-105.9690345021354
 30
0.0
 10
114.2374099875622
 20
-104.8912741199043
 30
0.0
 10
114.2374099875622
 20
-104.8912741199043
 30
0.0
 10
119.5399549411334
 20
-90.19312775272752
 30
0.0
 10
119.5399549411334
 20
-90.19312775272752
 30
0.0
 10
119.5399549411334
 20
-90.19312775272752
 30
0.0
 10
128.1668047114946
 20
-90.19312775272752
 30
0.0
 10
128.1668047114946
 20
-90.19312775272752
 30
0.0
 10
128.1668047114946
 20
-90.19312775272752
 30
0.0
 10
130.3432818557197
 20
-118.8751169992237
 30
0.0
 10
130.3432818557197
 20
-118.8751169992237
 30
0.0
 10
130.3432818557197
 20
-118.8751169992237
 30
0.0
 10
121.6373732788185
 20
-118.8751169992237
 30
0.0
 10
121.6373732788185
 20
-118.8751169992237
 30
0.0
 10
121.6373732788185
 20
-118.8751169992237
 30
0.0
 10
121.4394312669216
 20
-110.0411808865291
 30
0.0
 10
121.4394312669216
 20
-110.0411808865291
 30
0.0
 10
121.4128816677107
 20
-108.8382982966367
 30
0.0
 10
121.4128816677107
 20
-107.6670815734098
 30
0.0
 10
121.4394312669216
 20
-106.526409801213
 30
0.0
 10
121.4653908750394
 20
-105.3864386012888
 30
0.0
 10
121.5187850690085
 20
-104.2774326957563
 30
0.0
 10
121.5978438755487
 20
-103.1996723135262
 30
0.0
 10
121.5978438755487
 20
-103.1996723135262
 30
0.0
 10
121.3999018636515
 20
-103.1996723135262
 30
0.0
 10
121.3999018636515
 20
-103.1996723135262
 30
0.0
 10
121.1883900566022
 20
-104.2774326957563
 30
0.0
 10
120.9252540288647
 20
-105.3987686732643
 30
0.0
 10
120.6084288116108
 20
-106.5641005894117
 30
0.0
 10
120.2918985899039
 20
-107.7294325055594
 30
0.0
 10
119.9222691697751
 20
-108.9264302883713
 30
0.0
 10
119.5004255378636
 20
-110.1539730222134
 30
0.0
 10
119.5004255378636
 20
-110.1539730222134
 30
0.0
 10
116.4929459383275
 20
-118.8751169992237
 30
0.0
 10
116.4929459383275
 20
-118.8751169992237
 30
0.0
 10
116.4929459383275
 20
-118.8751169992237
 30
0.0
 10
108.8556587296769
 20
-118.8751169992237
 30
0.0
 10
108.8556587296769
 20
-118.8751169992237
 30
0.0
 10
108.8556587296769
 20
-118.8751169992237
 30
0.0
 10
105.7294434225579
 20
-110.11642234847
 30
0.0
 10
105.7294434225579
 20
-110.11642234847
 30
0.0
 10
105.307157297326
 20
-108.9135397585788
 30
0.0
 10
104.9381178682904
 20
-107.7358777704556
 30
0.0
 10
104.62144014881
 20
-106.5828759262834
 30
0.0
 10
104.3049099271031
 20
-105.4304345399285
 30
0.0
 10
104.0538687167834
 20
-104.3026532975243
 30
0.0
 10
103.8696439978126
 20
-103.1996723135262
 30
0.0
 10
103.8696439978126
 20
-103.1996723135262
 30
0.0
 10
103.6718494836892
 20
-103.1996723135262
 30
0.0
 10
103.6718494836892
 20
-103.1996723135262
 30
0.0
 10
103.7509082902291
 20
-104.3026532975243
 30
0.0
 10
103.8034174975581
 20
-105.4239892750323
 30
0.0
 10
103.8301145945428
 20
-106.5641005894117
 30
0.0
 10
103.8560742026603
 20
-107.7047723616071
 30
0.0
 10
103.8560742026603
 20
-108.8635188984047
 30
0.0
 10
103.8301145945428
 20
-110.0411808865291
 30
0.0
  0
SPLINE
  5
79
330
1F
100
AcDbEntity
  8
Calque 1
 62
     1
420
 16711680
370
     9
100
AcDbSpline
210
0.0
220
0.0
230
1.0
 70
    11
 71
     3
 72
    65
 73
    61
 74
     0
 42
0.0000000001
 43
0.0000000001
 12
1.0
 22
0.0
 32
0.0
 13
1.0
 23
0.0
 33
0.0
 40
0.0
 40
0.0
 40
0.0
 40
0.0
 40
1.0
 40
1.0
 40
1.0
 40
2.0
 40
2.0
 40
2.0
 40
3.0
 40
3.0
 40
3.0
 40
4.0
 40
4.0
 40
4.0
 40
5.0
 40
5.0
 40
5.0
 40
6.0
 40
6.0
 40
6.0
 40
7.0
 40
7.0
 40
7.0
 40
8.0
 40
8.0
 40
8.0
 40
9.0
 40
9.0
 40
9.0
 40
10.0
 40
10.0
 40
10.0
 40
11.0
 40
11.0
 40
11.0
 40
12.0
 40
12.0
 40
12.0
 40
13.0
 40
13.0
 40
13.0
 40
14.0
 40
14.0
 40
14.0
 40
15.0
 40
15.0
 40
15.0
 40
16.0
 40
16.0
 40
16.0
 40
17.0
 40
17.0
 40
17.0
 40
18.0
 40
18.0
 40
18.0
 40
19.0
 40
19.0
 40
19.0
 40
20.0
 40
20.0
 40
20.0
 40
20.0
 10
145.3135545385889
 20
-107.7857585161758
 30
0.0
 10
145.3135545385889
 20
-107.7857585161758
 30
0.0
 10
145.3135545385889
 20
-118.8751169992237
 30
0.0
 10
145.3135545385889
 20
-118.8751169992237
 30
0.0
 10
145.3135545385889
 20
-118.8751169992237
 30
0.0
 10
137.0828837875681
 20
-118.8751169992237
 30
0.0
 10
137.0828837875681
 20
-118.8751169992237
 30
0.0
 10
137.0828837875681
 20
-118.8751169992237
 30
0.0
 10
137.0828837875681
 20
-90.19312775272817
 30
0.0
 10
137.0828837875681
 20
-90.19312775272817
 30
0.0
 10
137.0828837875681
 20
-90.19312775272817
 30
0.0
 10
144.9970243168817
 20
-90.19312775272817
 30
0.0
 10
144.9970243168817
 20
-90.19312775272817
 30
0.0
 10
144.9970243168817
 20
-90.19312775272817
 30
0.0
 10
152.080457386432
 20
-101.1321434263467
 30
0.0
 10
152.080457386432
 20
-101.1321434263467
 30
0.0
 10
152.6079094240941
 20
-101.9092181897175
 30
0.0
 10
153.0896371520045
 20
-102.6862929530883
 30
0.0
 10
153.5247555835211
 20
-103.4628072586421
 30
0.0
 10
153.9601690105854
 20
-104.2398820220129
 30
0.0
 10
154.3489731412552
 20
-105.0040662555912
 30
0.0
 10
154.692347957721
 20
-105.7557803027398
 30
0.0
 10
154.692347957721
 20
-105.7557803027398
 30
0.0
 10
154.8504655708008
 20
-105.718229628995
 30
0.0
 10
154.8504655708008
 20
-105.718229628995
 30
0.0
 10
154.7973663723783
 20
-104.9417153234416
 30
0.0
 10
154.751642062626
 20
-104.1769706320462
 30
0.0
 10
154.7121126593556
 20
-103.4252565848986
 30
0.0
 10
154.6725832560858
 20
-102.6734024232958
 30
0.0
 10
154.6525235589036
 20
-101.921548261693
 30
0.0
 10
154.6525235589036
 20
-101.1696941000901
 30
0.0
 10
154.6525235589036
 20
-101.1696941000901
 30
0.0
 10
154.6525235589036
 20
-90.19312775272817
 30
0.0
 10
154.6525235589036
 20
-90.19312775272817
 30
0.0
 10
154.6525235589036
 20
-90.19312775272817
 30
0.0
 10
162.8834893054704
 20
-90.19312775272817
 30
0.0
 10
162.8834893054704
 20
-90.19312775272817
 30
0.0
 10
162.8834893054704
 20
-90.19312775272817
 30
0.0
 10
162.8834893054704
 20
-118.8751169992237
 30
0.0
 10
162.8834893054704
 20
-118.8751169992237
 30
0.0
 10
162.8834893054704
 20
-118.8751169992237
 30
0.0
 10
154.9693487761578
 20
-118.8751169992237
 30
0.0
 10
154.9693487761578
 20
-118.8751169992237
 30
0.0
 10
154.9693487761578
 20
-118.8751169992237
 30
0.0
 10
147.8859157066078
 20
-107.8233091899193
 30
0.0
 10
147.8859157066078
 20
-107.8233091899193
 30
0.0
 10
147.3844232770628
 20
-107.0215742825975
 30
0.0
 10
146.9094804467291
 20
-106.2321694472513
 30
0.0
 10
146.4613822111532
 20
-105.4550946838808
 30
0.0
 10
146.0123989889373
 20
-104.678580378327
 30
0.0
 10
145.6035351610843
 20
-103.9268663311781
 30
0.0
 10
145.234495732049
 20
-103.1996723135275
 30
0.0
 10
145.234495732049
 20
-103.1996723135275
 30
0.0
 10
145.0763781189685
 20
-103.237222987271
 30
0.0
 10
145.0763781189685
 20
-103.237222987271
 30
0.0
 10
145.1554369255088
 20
-103.9890771488738
 30
0.0
 10
145.2147310304138
 20
-104.7473765753716
 30
0.0
 10
145.2542604336836
 20
-105.5115608089508
 30
0.0
 10
145.2937898369537
 20
-106.2763055003462
 30
0.0
 10
145.3135545385889
 20
-107.033904354573
 30
0.0
 10
145.3135545385889
 20
-107.7857585161758
 30
0.0
  0
SPLINE
  5
7A
330
1F
100
AcDbEntity
  8
Calque 1
 62
     1
420
 16711680
370
     9
100
AcDbSpline
210
0.0
220
0.0
230
1.0
 70
    11
 71
     3
 72
    95
 73
    91
 74
     0
 42
0.0000000001
 43
0.0000000001
 12
1.0
 22
0.0
 32
0.0
 13
1.0
 23
0.0
 33
0.0
 40
0.0
 40
0.0
 40
0.0
 40
0.0
 40
1.0
 40
1.0
 40
1.0
 40
2.0
 40
2.0
 40
2.0
 40
3.0
 40
3.0
 40
3.0
 40
4.0
 40
4.0
 40
4.0
 40
5.0
 40
5.0
 40
5.0
 40
6.0
 40
6.0
 40
6.0
 40
7.0
 40
7.0
 40
7.0
 40
8.0
 40
8.0
 40
8.0
 40
9.0
 40
9.0
 40
9.0
 40
10.0
 40
10.0
 40
10.0
 40
11.0
 40
11.0
 40
11.0
 40
12.0
 40
12.0
 40
12.0
 40
13.0
 40
13.0
 40
13.0
 40
14.0
 40
14.0
 40
14.0
 40
15.0
 40
15.0
 40
15.0
 40
16.0
 40
16.0
 40
16.0
 40
17.0
 40
17.0
 40
17.0
 40
18.0
 40
18.0
 40
18.0
 40
19.0
 40
19.0
 40
19.0
 40
20.0
 40
20.0
 40
20.0
 40
21.0
 40
21.0
 40
21.0
 40
22.0
 40
22.0
 40
22.0
 40
23.0
 40
23.0
 40
23.0
 40
24.0
 40
24.0
 40
24.0
 40
25.0
 40
25.0
 40
25.0
 40
26.0
 40
26.0
 40
26.0
 40
27.0
 40
27.0
 40
27.0
 40
28.0
 40
28.0
 40
28.0
 40
29.0
 40
29.0
 40
29.0
 40
30.0
 40
30.0
 40
30.0
 40
30.0
 10
163.1655225216939
 20
-149.2445171680855
 30
0.0
 10
163.1655225216939
 20
-152.2519338144968
 30
0.0
 10
162.0889300256836
 20
-154.532716901072
 30
0.0
 10
159.935893652177
 20
-156.0863059699966
 30
0.0
 10
157.7827086601569
 20
-157.6404554967395
 30
0.0
 10
154.6190664096665
 20
-158.4166895733841
 30
0.0
 10
150.4461558487957
 20
-158.4166895733841
 30
0.0
 10
148.7715224632302
 20
-158.4166895733841
 30
0.0
 10
147.2165269792784
 20
-158.3040375521525
 30
0.0
 10
145.7811693969397
 20
-158.0784532807801
 30
0.0
 10
144.3456631960902
 20
-157.8528690094089
 30
0.0
 10
142.9103056137518
 20
-157.5023026448307
 30
0.0
 10
141.4747994129023
 20
-157.0259135003192
 30
0.0
 10
141.4747994129023
 20
-157.0259135003192
 30
0.0
 10
141.4747994129023
 20
-150.0339220034318
 30
0.0
 10
141.4747994129023
 20
-150.0339220034318
 30
0.0
 10
142.7769948090965
 20
-150.7358954193157
 30
0.0
 10
144.2123523914353
 20
-151.2744953815216
 30
0.0
 10
145.7811693969397
 20
-151.6505625767769
 30
0.0
 10
147.3492433098877
 20
-152.0263495431244
 30
0.0
 10
148.9440685548737
 20
-152.2143831407521
 30
0.0
 10
150.5657937504091
 20
-152.2143831407521
 30
0.0
 10
151.8416836700999
 20
-152.2143831407521
 30
0.0
 10
152.7986382644956
 20
-152.0263495431244
 30
0.0
 10
153.4366575335967
 20
-151.6505625767769
 30
0.0
 10
154.0745281841871
 20
-151.2744953815216
 30
0.0
 10
154.393612127993
 20
-150.7106748175477
 30
0.0
 10
154.393612127993
 20
-149.9588206559449
 30
0.0
 10
154.393612127993
 20
-149.4325507657132
 30
0.0
 10
154.1344214442495
 20
-148.9502768141224
 30
0.0
 10
153.6160400767611
 20
-148.5114383433557
 30
0.0
 10
153.0976587092734
 20
-148.0734405593138
 30
0.0
 10
151.9214918106798
 20
-147.5031747304424
 30
0.0
 10
150.0873907624664
 20
-146.8012013145585
 30
0.0
 10
148.3329492363214
 20
-146.0997883564929
 30
0.0
 10
147.0371444361141
 20
-145.517192455646
 30
0.0
 10
146.1998277433312
 20
-145.05313338311
 30
0.0
 10
145.3623624320371
 20
-144.5899149973001
 30
0.0
 10
144.637847189347
 20
-144.0824204439414
 30
0.0
 10
144.0267278707953
 20
-143.5306497230326
 30
0.0
 10
143.1757382749709
 20
-142.7544156463879
 30
0.0
 10
142.5377190058701
 20
-141.8708538977726
 30
0.0
 10
142.1128186820027
 20
-140.8805249350062
 30
0.0
 10
141.687323884091
 20
-139.8910366589646
 30
0.0
 10
141.4747994129023
 20
-138.7818906389794
 30
0.0
 10
141.4747994129023
 20
-137.553927561773
 30
0.0
 10
141.4747994129023
 20
-134.8471965342222
 30
0.0
 10
142.5246405768733
 20
-132.742116973298
 30
0.0
 10
144.6247687603508
 20
-131.2384086500923
 30
0.0
 10
146.7243024697831
 20
-129.7349805557958
 30
0.0
 10
149.6617473460432
 20
-128.9831263941942
 30
0.0
 10
153.4366575335967
 20
-128.9831263941942
 30
0.0
 10
154.9779801145073
 20
-128.9831263941942
 30
0.0
 10
156.4931458374249
 20
-129.1274442820901
 30
0.0
 10
157.9821547023508
 20
-129.4152393711569
 30
0.0
 10
159.4704204747196
 20
-129.7035949180394
 30
0.0
 10
160.7595374419167
 20
-130.1107675221433
 30
0.0
 10
161.8498028409683
 20
-130.6370374123737
 30
0.0
 10
161.8498028409683
 20
-130.6370374123737
 30
0.0
 10
161.8498028409683
 20
-138.0048158756073
 30
0.0
 10
161.8498028409683
 20
-138.0048158756073
 30
0.0
 10
160.8130401059934
 20
-137.1778603665176
 30
0.0
 10
159.5234772832601
 20
-136.5201631181826
 30
0.0
 10
157.9821547023508
 20
-136.0314439016956
 30
0.0
 10
156.4400890288831
 20
-135.5427246852086
 30
0.0
 10
154.8850935449319
 20
-135.2983650769658
 30
0.0
 10
153.317019631984
 20
-135.2983650769658
 30
0.0
 10
152.2005973749401
 20
-135.2983650769658
 30
0.0
 10
151.376359111154
 20
-135.4426829648616
 30
0.0
 10
150.8448993146694
 20
-135.7307582828363
 30
0.0
 10
150.3128450441405
 20
-136.0191138297201
 30
0.0
 10
150.0474123829214
 20
-136.4635568786582
 30
0.0
 10
150.0474123829214
 20
-137.065208345286
 30
0.0
 10
150.0474123829214
 20
-137.6419194390536
 30
0.0
 10
150.3327599246573
 20
-138.1740741363633
 30
0.0
 10
150.9047925747325
 20
-138.6627933528503
 30
0.0
 10
151.47608213225
 20
-139.1515125693385
 30
0.0
 10
152.7451356004202
 20
-139.7968797456968
 30
0.0
 10
154.7125474532882
 20
-140.5986146530186
 30
0.0
 10
156.3871808388534
 20
-141.2753674671332
 30
0.0
 10
157.6294829749856
 20
-141.8333032240292
 30
0.0
 10
158.4406428097761
 20
-142.2715812369789
 30
0.0
 10
159.251208170521
 20
-142.7101394788391
 30
0.0
 10
159.9489720811731
 20
-143.1677532864789
 30
0.0
 10
160.5339345417318
 20
-143.6435819731734
 30
0.0
 10
161.4110809955496
 20
-144.3954361347762
 30
0.0
 10
162.0690151451668
 20
-145.2352821736584
 30
0.0
 10
162.5075883720747
 20
-146.1619991741886
 30
0.0
 10
162.9461615989846
 20
-147.0895568614423
 30
0.0
 10
163.1655225216939
 20
-148.1168760401364
 30
0.0
 10
163.1655225216939
 20
-149.2445171680855
 30
0.0
  0
POLYLINE
  5
7B
330
1F
100
AcDbEntity
  8
Calque 1
 62
     1
420
 16711680
370
     9
100
AcDb2dPolyline
 66
     1
 10
0.0
 20
0.0
 30
0.0
  0
VERTEX
  5
7C
330
7B
100
AcDbEntity
  8
Calque 1
 62
     1
420
 16711680
370
     9
100
AcDbVertex
100
AcDb2dVertex
 10
194.2566846080402
 20
-136.2755232810318
 30
0.0
  0
VERTEX
  5
7D
330
7B
100
AcDbEntity
  8
Calque 1
 62
     1
420
 16711680
370
     9
100
AcDbVertex
100
AcDb2dVertex
 10
194.2566846080402
 20
-158.4166895733841
 30
0.0
  0
VERTEX
  5
7E
330
7B
100
AcDbEntity
  8
Calque 1
 62
     1
420
 16711680
370
     9
100
AcDbVertex
100
AcDb2dVertex
 10
185.6442418769869
 20
-158.4166895733841
 30
0.0
  0
VERTEX
  5
7F
330
7B
100
AcDbEntity
  8
Calque 1
 62
     1
420
 16711680
370
     9
100
AcDbVertex
100
AcDb2dVertex
 10
185.6442418769869
 20
-136.2755232810318
 30
0.0
  0
VERTEX
  5
80
330
7B
100
AcDbEntity
  8
Calque 1
 62
     1
420
 16711680
370
     9
100
AcDbVertex
100
AcDb2dVertex
 10
177.8292860776836
 20
-136.2755232810318
 30
0.0
  0
VERTEX
  5
81
330
7B
100
AcDbEntity
  8
Calque 1
 62
     1
420
 16711680
370
     9
100
AcDbVertex
100
AcDb2dVertex
 10
177.8292860776836
 20
-129.7347003268879
 30
0.0
  0
VERTEX
  5
82
330
7B
100
AcDbEntity
  8
Calque 1
 62
     1
420
 16711680
370
     9
100
AcDbVertex
100
AcDb2dVertex
 10
202.0719376443683
 20
-129.7347003268879
 30
0.0
  0
VERTEX
  5
83
330
7B
100
AcDbEntity
  8
Calque 1
 62
     1
420
 16711680
370
     9
100
AcDbVertex
100
AcDb2dVertex
 10
202.0719376443683
 20
-136.2755232810318
 30
0.0
  0
VERTEX
  5
84
330
7B
100
AcDbEntity
  8
Calque 1
 62
     1
420
 16711680
370
     9
100
AcDbVertex
100
AcDb2dVertex
 10
194.2566846080402
 20
-136.2755232810318
 30
0.0
  0
SEQEND
  5
85
330
7B
100
AcDbEntity
  8
Calque 1
 62
     1
420
 16711680
370
     9
  0
SPLINE
  5
86
330
1F
100
AcDbEntity
  8
Calque 1
 62
     1
420
 16711680
370
     9
100
AcDbSpline
210
0.0
220
0.0
230
1.0
 70
    11
 71
     3
 72
    59
 73
    55
 74
     0
 42
0.0000000001
 43
0.0000000001
 12
1.0
 22
0.0
 32
0.0
 13
1.0
 23
0.0
 33
0.0
 40
0.0
 40
0.0
 40
0.0
 40
0.0
 40
1.0
 40
1.0
 40
1.0
 40
2.0
 40
2.0
 40
2.0
 40
3.0
 40
3.0
 40
3.0
 40
4.0
 40
4.0
 40
4.0
 40
5.0
 40
5.0
 40
5.0
 40
6.0
 40
6.0
 40
6.0
 40
7.0
 40
7.0
 40
7.0
 40
8.0
 40
8.0
 40
8.0
 40
9.0
 40
9.0
 40
9.0
 40
10.0
 40
10.0
 40
10.0
 40
11.0
 40
11.0
 40
11.0
 40
12.0
 40
12.0
 40
12.0
 40
13.0
 40
13.0
 40
13.0
 40
14.0
 40
14.0
 40
14.0
 40
15.0
 40
15.0
 40
15.0
 40
16.0
 40
16.0
 40
16.0
 40
17.0
 40
17.0
 40
17.0
 40
18.0
 40
18.0
 40
18.0
 40
18.0
 10
51.07815295731262
 20
-183.5984921874247
 30
0.0
 10
51.07815295731262
 20
-189.1870973103626
 30
0.0
 10
50.15732076386299
 20
-193.0402448027354
 30
0.0
 10
48.31537614805458
 20
-195.1576544356339
 30
0.0
 10
46.47343153224617
 20
-197.2756245263519
 30
0.0
 10
43.30936692596352
 20
-198.334049113892
 30
0.0
 10
38.82346255811644
 20
-198.334049113892
 30
0.0
 10
34.33727796136021
 20
-198.334049113892
 30
0.0
 10
31.17377381289521
 20
-197.2568491894789
 30
0.0
 10
29.3318291970868
 20
-195.1013284250187
 30
0.0
 10
27.48988458127839
 20
-192.9463681183755
 30
0.0
 10
26.56905238782876
 20
-189.1119959628745
 30
0.0
 10
26.56905238782876
 20
-183.5984921874247
 30
0.0
 10
26.56905238782876
 20
-183.5984921874247
 30
0.0
 10
26.56905238782876
 20
-169.2762729010483
 30
0.0
 10
26.56905238782876
 20
-169.2762729010483
 30
0.0
 10
26.56905238782876
 20
-169.2762729010483
 30
0.0
 10
34.76378636015213
 20
-169.2762729010483
 30
0.0
 10
34.76378636015213
 20
-169.2762729010483
 30
0.0
 10
34.76378636015213
 20
-169.2762729010483
 30
0.0
 10
34.76378636015213
 20
-184.1623127513998
 30
0.0
 10
34.76378636015213
 20
-184.1623127513998
 30
0.0
 10
34.76378636015213
 20
-185.5662595831664
 30
0.0
 10
34.80133703389622
 20
-186.5932985329514
 30
0.0
 10
34.87643838138376
 20
-187.2448307452981
 30
0.0
 10
34.9518199577798
 20
-187.8969234154617
 30
0.0
 10
35.06447197901144
 20
-188.4478534496431
 30
0.0
 10
35.21495490289566
 20
-188.8987417634788
 30
0.0
 10
35.49041991998699
 20
-189.7256972725685
 30
0.0
 10
35.9289781618459
 20
-190.3402392689888
 30
0.0
 10
36.53062962847301
 20
-190.7406863792872
 30
0.0
 10
37.13200086619161
 20
-191.1419741763105
 30
0.0
 10
37.90851517174604
 20
-191.342337845915
 30
0.0
 10
38.86129346076839
 20
-191.342337845915
 30
0.0
 10
39.7880104612979
 20
-191.342337845915
 30
0.0
 10
40.54630988779698
 20
-191.1419741763105
 30
0.0
 10
41.13535105354011
 20
-190.7406863792872
 30
0.0
 10
41.72411199037408
 20
-190.3402392689888
 30
0.0
 10
42.15622496733738
 20
-189.7256972725685
 30
0.0
 10
42.43225044224572
 20
-188.8987417634788
 30
0.0
 10
42.60739351008091
 20
-188.4231933056922
 30
0.0
 10
42.72649079620814
 20
-187.8649773198884
 30
0.0
 10
42.78954230062934
 20
-187.2260554084263
 30
0.0
 10
42.8517531183244
 20
-186.5868532680551
 30
0.0
 10
42.88341898498861
 20
-185.5662595831664
 30
0.0
 10
42.88341898498861
 20
-184.1623127513998
 30
0.0
 10
42.88341898498861
 20
-184.1623127513998
 30
0.0
 10
42.88341898498861
 20
-169.2762729010483
 30
0.0
 10
42.88341898498861
 20
-169.2762729010483
 30
0.0
 10
42.88341898498861
 20
-169.2762729010483
 30
0.0
 10
51.07815295731262
 20
-169.2762729010483
 30
0.0
 10
51.07815295731262
 20
-169.2762729010483
 30
0.0
 10
51.07815295731262
 20
-169.2762729010483
 30
0.0
 10
51.07815295731262
 20
-183.5984921874247
 30
0.0
 10
51.07815295731262
 20
-183.5984921874247
 30
0.0
  0
POLYLINE
  5
87
330
1F
100
AcDbEntity
  8
Calque 1
 62
     1
420
 16711680
370
     9
100
AcDb2dPolyline
 66
     1
 10
0.0
 20
0.0
 30
0.0
  0
VERTEX
  5
88
330
87
100
AcDbEntity
  8
Calque 1
 62
     1
420
 16711680
370
     9
100
AcDbVertex
100
AcDb2dVertex
 10
89.93558752030201
 20
-169.6520598673958
 30
0.0
  0
VERTEX
  5
89
330
87
100
AcDbEntity
  8
Calque 1
 62
     1
420
 16711680
370
     9
100
AcDbVertex
100
AcDb2dVertex
 10
80.31224657226052
 20
-198.334049113892
 30
0.0
  0
VERTEX
  5
8A
330
87
100
AcDbEntity
  8
Calque 1
 62
     1
420
 16711680
370
     9
100
AcDbVertex
100
AcDb2dVertex
 10
71.96702967605228
 20
-198.334049113892
 30
0.0
  0
VERTEX
  5
8B
330
87
100
AcDbEntity
  8
Calque 1
 62
     1
420
 16711680
370
     9
100
AcDbVertex
100
AcDb2dVertex
 10
62.34382884246535
 20
-169.6520598673958
 30
0.0
  0
VERTEX
  5
8C
330
87
100
AcDbEntity
  8
Calque 1
 62
     1
420
 16711680
370
     9
100
AcDbVertex
100
AcDb2dVertex
 10
70.80183787435851
 20
-169.6520598673958
 30
0.0
  0
VERTEX
  5
8D
330
87
100
AcDbEntity
  8
Calque 1
 62
     1
420
 16711680
370
     9
100
AcDbVertex
100
AcDb2dVertex
 10
76.10208745041263
 20
-189.9137308701975
 30
0.0
  0
VERTEX
  5
8E
330
87
100
AcDbEntity
  8
Calque 1
 62
     1
420
 16711680
370
     9
100
AcDbVertex
100
AcDb2dVertex
 10
76.25243025984227
 20
-189.9137308701975
 30
0.0
  0
VERTEX
  5
8F
330
87
100
AcDbEntity
  8
Calque 1
 62
     1
420
 16711680
370
     9
100
AcDbVertex
100
AcDb2dVertex
 10
81.47757848840821
 20
-169.6520598673958
 30
0.0
  0
VERTEX
  5
90
330
87
100
AcDbEntity
  8
Calque 1
 62
     1
420
 16711680
370
     9
100
AcDbVertex
100
AcDb2dVertex
 10
89.93558752030201
 20
-169.6520598673958
 30
0.0
  0
SEQEND
  5
91
330
87
100
AcDbEntity
  8
Calque 1
 62
     1
420
 16711680
370
     9
  0
SPLINE
  5
92
330
1F
100
AcDbEntity
  8
Calque 1
 62
     1
420
 16711680
370
     9
100
AcDbSpline
210
0.0
220
0.0
230
1.0
 70
    11
 71
     3
 72
    77
 73
    73
 74
     0
 42
0.0000000001
 43
0.0000000001
 12
1.0
 22
0.0
 32
0.0
 13
1.0
 23
0.0
 33
0.0
 40
0.0
 40
0.0
 40
0.0
 40
0.0
 40
1.0
 40
1.0
 40
1.0
 40
2.0
 40
2.0
 40
2.0
 40
3.0
 40
3.0
 40
3.0
 40
4.0
 40
4.0
 40
4.0
 40
5.0
 40
5.0
 40
5.0
 40
6.0
 40
6.0
 40
6.0
 40
7.0
 40
7.0
 40
7.0
 40
8.0
 40
8.0
 40
8.0
 40
9.0
 40
9.0
 40
9.0
 40
10.0
 40
10.0
 40
10.0
 40
11.0
 40
11.0
 40
11.0
 40
12.0
 40
12.0
 40
12.0
 40
13.0
 40
13.0
 40
13.0
 40
14.0
 40
14.0
 40
14.0
 40
15.0
 40
15.0
 40
15.0
 40
16.0
 40
16.0
 40
16.0
 40
17.0
 40
17.0
 40
17.0
 40
18.0
 40
18.0
 40
18.0
 40
19.0
 40
19.0
 40
19.0
 40
20.0
 40
20.0
 40
20.0
 40
21.0
 40
21.0
 40
21.0
 40
22.0
 40
22.0
 40
22.0
 40
23.0
 40
23.0
 40
23.0
 40
24.0
 40
24.0
 40
24.0
 40
24.0
 10
113.3430916117381
 20
-181.4180310501044
 30
0.0
 10
113.3430916117381
 20
-181.4180310501044
 30
0.0
 10
108.8321067565763
 20
-198.334049113892
 30
0.0
 10
108.8321067565763
 20
-198.334049113892
 30
0.0
 10
108.8321067565763
 20
-198.334049113892
 30
0.0
 10
100.6372326697977
 20
-198.334049113892
 30
0.0
 10
100.6372326697977
 20
-198.334049113892
 30
0.0
 10
100.6372326697977
 20
-198.334049113892
 30
0.0
 10
94.81071320351383
 20
-169.6520598673952
 30
0.0
 10
94.81071320351383
 20
-169.6520598673952
 30
0.0
 10
94.81071320351383
 20
-169.6520598673952
 30
0.0
 10
103.0806886377793
 20
-169.6520598673952
 30
0.0
 10
103.0806886377793
 20
-169.6520598673952
 30
0.0
 10
103.0806886377793
 20
-169.6520598673952
 30
0.0
 10
104.4716048252988
 20
-179.162748794205
 30
0.0
 10
104.4716048252988
 20
-179.162748794205
 30
0.0
 10
104.6219476347291
 20
-180.1651276000391
 30
0.0
 10
104.7658451792618
 20
-181.3681503043848
 30
0.0
 10
104.903857916716
 20
-182.7712564494258
 30
0.0
 10
105.0413101963532
 20
-184.1752032811917
 30
0.0
 10
105.1605475969356
 20
-185.7786730958365
 30
0.0
 10
105.261009660645
 20
-187.5830670379008
 30
0.0
 10
105.261009660645
 20
-187.5830670379008
 30
0.0
 10
105.4489031438188
 20
-187.5830670379008
 30
0.0
 10
105.4489031438188
 20
-187.5830670379008
 30
0.0
 10
105.7495887626781
 20
-185.8789950450926
 30
0.0
 10
106.0504144959913
 20
-184.325405976168
 30
0.0
 10
106.3511001148513
 20
-182.9217393733094
 30
0.0
 10
106.6517857337106
 20
-181.518633228269
 30
0.0
 10
106.9526114670238
 20
-180.2528392484112
 30
0.0
 10
107.2532970858838
 20
-179.1249178915531
 30
0.0
 10
107.2532970858838
 20
-179.1249178915531
 30
0.0
 10
109.8470958632944
 20
-169.6520598673952
 30
0.0
 10
109.8470958632944
 20
-169.6520598673952
 30
0.0
 10
109.8470958632944
 20
-169.6520598673952
 30
0.0
 10
117.1020821908424
 20
-169.6520598673952
 30
0.0
 10
117.1020821908424
 20
-169.6520598673952
 30
0.0
 10
117.1020821908424
 20
-169.6520598673952
 30
0.0
 10
119.8086731039392
 20
-179.162748794205
 30
0.0
 10
119.8086731039392
 20
-179.162748794205
 30
0.0
 10
120.1340188667502
 20
-180.2657297782037
 30
0.0
 10
120.4477351298559
 20
-181.518633228269
 30
0.0
 10
120.7484207487152
 20
-182.9217393733094
 30
0.0
 10
121.049246482029
 20
-184.325405976168
 30
0.0
 10
121.3499321008884
 20
-185.8789950450926
 30
0.0
 10
121.650617719747
 20
-187.5830670379008
 30
0.0
 10
121.650617719747
 20
-187.5830670379008
 30
0.0
 10
121.8386513173753
 20
-187.5830670379008
 30
0.0
 10
121.8386513173753
 20
-187.5830670379008
 30
0.0
 10
121.9384128088138
 20
-185.7786730958365
 30
0.0
 10
122.0512049445
 20
-184.1752032811917
 30
0.0
 10
122.1768876099781
 20
-182.7712564494258
 30
0.0
 10
122.3020098176398
 20
-181.3681503043848
 30
0.0
 10
122.4271320253014
 20
-180.1651276000391
 30
0.0
 10
122.5528146907795
 20
-179.162748794205
 30
0.0
 10
122.5528146907795
 20
-179.162748794205
 30
0.0
 10
123.8684894163568
 20
-169.6520598673952
 30
0.0
 10
123.8684894163568
 20
-169.6520598673952
 30
0.0
 10
123.8684894163568
 20
-169.6520598673952
 30
0.0
 10
132.1009141768795
 20
-169.6520598673952
 30
0.0
 10
132.1009141768795
 20
-169.6520598673952
 30
0.0
 10
132.1009141768795
 20
-169.6520598673952
 30
0.0
 10
126.3494960580825
 20
-198.334049113892
 30
0.0
 10
126.3494960580825
 20
-198.334049113892
 30
0.0
 10
126.3494960580825
 20
-198.334049113892
 30
0.0
 10
118.1170712975598
 20
-198.334049113892
 30
0.0
 10
118.1170712975598
 20
-198.334049113892
 30
0.0
 10
118.1170712975598
 20
-198.334049113892
 30
0.0
 10
113.4934344211671
 20
-181.4180310501044
 30
0.0
 10
113.4934344211671
 20
-181.4180310501044
 30
0.0
 10
113.4934344211671
 20
-181.4180310501044
 30
0.0
 10
113.3430916117381
 20
-181.4180310501044
 30
0.0
 10
113.3430916117381
 20
-181.4180310501044
 30
0.0
  0
POLYLINE
  5
93
330
1F
100
AcDbEntity
  8
Calque 1
 62
     1
420
 16711680
370
     9
100
AcDb2dPolyline
 66
     1
 10
0.0
 20
0.0
 30
0.0
  0
VERTEX
  5
94
330
93
100
AcDbEntity
  8
Calque 1
 62
     1
420
 16711680
370
     9
100
AcDbVertex
100
AcDb2dVertex
 10
150.4523881860517
 20
-190.0263828914285
 30
0.0
  0
VERTEX
  5
95
330
93
100
AcDbEntity
  8
Calque 1
 62
     1
420
 16711680
370
     9
100
AcDbVertex
100
AcDb2dVertex
 10
145.9790941190882
 20
-198.334049113892
 30
0.0
  0
VERTEX
  5
96
330
93
100
AcDbEntity
  8
Calque 1
 62
     1
420
 16711680
370
     9
100
AcDbVertex
100
AcDb2dVertex
 10
137.1076073326496
 20
-198.334049113892
 30
0.0
  0
VERTEX
  5
97
330
93
100
AcDbEntity
  8
Calque 1
 62
     1
420
 16711680
370
     9
100
AcDbVertex
100
AcDb2dVertex
 10
146.317330411691
 20
-183.1097729709377
 30
0.0
  0
VERTEX
  5
98
330
93
100
AcDbEntity
  8
Calque 1
 62
     1
420
 16711680
370
     9
100
AcDbVertex
100
AcDb2dVertex
 10
137.5586357609385
 20
-169.6520598673958
 30
0.0
  0
VERTEX
  5
99
330
93
100
AcDbEntity
  8
Calque 1
 62
     1
420
 16711680
370
     9
100
AcDbVertex
100
AcDb2dVertex
 10
146.4678133355752
 20
-169.6520598673958
 30
0.0
  0
VERTEX
  5
9A
330
93
100
AcDbEntity
  8
Calque 1
 62
     1
420
 16711680
370
     9
100
AcDbVertex
100
AcDb2dVertex
 10
150.9786580762821
 20
-177.3959055258848
 30
0.0
  0
VERTEX
  5
9B
330
93
100
AcDbEntity
  8
Calque 1
 62
     1
420
 16711680
370
     9
100
AcDbVertex
100
AcDb2dVertex
 10
151.1290008857124
 20
-177.3959055258848
 30
0.0
  0
VERTEX
  5
9C
330
93
100
AcDbEntity
  8
Calque 1
 62
     1
420
 16711680
370
     9
100
AcDbVertex
100
AcDb2dVertex
 10
155.3768507957583
 20
-169.6520598673958
 30
0.0
  0
VERTEX
  5
9D
330
93
100
AcDbEntity
  8
Calque 1
 62
     1
420
 16711680
370
     9
100
AcDbVertex
100
AcDb2dVertex
 10
164.2107869084529
 20
-169.6520598673958
 30
0.0
  0
VERTEX
  5
9E
330
93
100
AcDbEntity
  8
Calque 1
 62
     1
420
 16711680
370
     9
100
AcDbVertex
100
AcDb2dVertex
 10
155.1137158506424
 20
-184.1247620776558
 30
0.0
  0
VERTEX
  5
9F
330
93
100
AcDbEntity
  8
Calque 1
 62
     1
420
 16711680
370
     9
100
AcDbVertex
100
AcDb2dVertex
 10
164.4362310653701
 20
-198.334049113892
 30
0.0
  0
VERTEX
  5
A0
330
93
100
AcDbEntity
  8
Calque 1
 62
     1
420
 16711680
370
     9
100
AcDbVertex
100
AcDb2dVertex
 10
155.564744278932
 20
-198.334049113892
 30
0.0
  0
VERTEX
  5
A1
330
93
100
AcDbEntity
  8
Calque 1
 62
     1
420
 16711680
370
     9
100
AcDbVertex
100
AcDb2dVertex
 10
150.5651803217372
 20
-190.0263828914285
 30
0.0
  0
VERTEX
  5
A2
330
93
100
AcDbEntity
  8
Calque 1
 62
     1
420
 16711680
370
     9
100
AcDbVertex
100
AcDb2dVertex
 10
150.4523881860517
 20
-190.0263828914285
 30
0.0
  0
SEQEND
  5
A3
330
93
100
AcDbEntity
  8
Calque 1
 62
     1
420
 16711680
370
     9
  0
SPLINE
  5
A4
330
1F
100
AcDbEntity
  8
Calque 1
 62
     1
420
 16711680
370
     9
100
AcDbSpline
210
0.0
220
0.0
230
1.0
 70
    11
 71
     3
 72
    47
 73
    43
 74
     0
 42
0.0000000001
 43
0.0000000001
 12
1.0
 22
0.0
 32
0.0
 13
1.0
 23
0.0
 33
0.0
 40
0.0
 40
0.0
 40
0.0
 40
0.0
 40
1.0
 40
1.0
 40
1.0
 40
2.0
 40
2.0
 40
2.0
 40
3.0
 40
3.0
 40
3.0
 40
4.0
 40
4.0
 40
4.0
 40
5.0
 40
5.0
 40
5.0
 40
6.0
 40
6.0
 40
6.0
 40
7.0
 40
7.0
 40
7.0
 40
8.0
 40
8.0
 40
8.0
 40
9.0
 40
9.0
 40
9.0
 40
10.0
 40
10.0
 40
10.0
 40
11.0
 40
11.0
 40
11.0
 40
12.0
 40
12.0
 40
12.0
 40
13.0
 40
13.0
 40
13.0
 40
14.0
 40
14.0
 40
14.0
 40
14.0
 10
192.1854617512116
 20
-187.7711006355279
 30
0.0
 10
192.1854617512116
 20
-187.7711006355279
 30
0.0
 10
192.1854617512116
 20
-198.334049113892
 30
0.0
 10
192.1854617512116
 20
-198.334049113892
 30
0.0
 10
192.1854617512116
 20
-198.334049113892
 30
0.0
 10
184.0656890119212
 20
-198.334049113892
 30
0.0
 10
184.0656890119212
 20
-198.334049113892
 30
0.0
 10
184.0656890119212
 20
-198.334049113892
 30
0.0
 10
184.0656890119212
 20
-187.7711006355279
 30
0.0
 10
184.0656890119212
 20
-187.7711006355279
 30
0.0
 10
184.0656890119212
 20
-187.7711006355279
 30
0.0
 10
174.1041117712763
 20
-169.6520598673952
 30
0.0
 10
174.1041117712763
 20
-169.6520598673952
 30
0.0
 10
174.1041117712763
 20
-169.6520598673952
 30
0.0
 10
183.2387335028302
 20
-169.6520598673952
 30
0.0
 10
183.2387335028302
 20
-169.6520598673952
 30
0.0
 10
183.2387335028302
 20
-169.6520598673952
 30
0.0
 10
186.8475213869601
 20
-177.4710068733723
 30
0.0
 10
186.8475213869601
 20
-177.4710068733723
 30
0.0
 10
187.0477449421093
 20
-177.9221754161152
 30
0.0
 10
187.2293332748408
 20
-178.3733439588581
 30
0.0
 10
187.3925666140623
 20
-178.8242322726931
 30
0.0
 10
187.555239495468
 20
-179.2754008154367
 30
0.0
 10
187.7620484299675
 20
-179.9398235575758
 30
0.0
 10
188.0128533031078
 20
-180.8166598123851
 30
0.0
 10
188.0128533031078
 20
-180.8166598123851
 30
0.0
 10
188.238297460025
 20
-180.8166598123851
 30
0.0
 10
188.238297460025
 20
-180.8166598123851
 30
0.0
 10
188.4386611296282
 20
-180.0900262525516
 30
0.0
 10
188.6265546128019
 20
-179.4763249428575
 30
0.0
 10
188.8022581384541
 20
-178.9747151965774
 30
0.0
 10
188.9772610918353
 20
-178.4736659081143
 30
0.0
 10
189.1781852192555
 20
-177.9726166196518
 30
0.0
 10
189.4036293761727
 20
-177.4710068733723
 30
0.0
 10
189.4036293761727
 20
-177.4710068733723
 30
0.0
 10
192.8996251246158
 20
-169.6520598673952
 30
0.0
 10
192.8996251246158
 20
-169.6520598673952
 30
0.0
 10
192.8996251246158
 20
-169.6520598673952
 30
0.0
 10
202.0719376443683
 20
-169.6520598673952
 30
0.0
 10
202.0719376443683
 20
-169.6520598673952
 30
0.0
 10
202.0719376443683
 20
-169.6520598673952
 30
0.0
 10
192.1854617512116
 20
-187.7711006355279
 30
0.0
 10
192.1854617512116
 20
-187.7711006355279
 30
0.0
  0
POLYLINE
  5
A5
330
1F
100
AcDbEntity
  8
Calque 1
 62
     1
420
 16711680
370
     9
100
AcDb2dPolyline
 66
     1
 10
0.0
 20
0.0
 30
0.0
  0
VERTEX
  5
A6
330
A5
100
AcDbEntity
  8
Calque 1
 62
     1
420
 16711680
370
     9
100
AcDbVertex
100
AcDb2dVertex
 10
235.8168760000234
 20
-191.7932261597487
 30
0.0
  0
VERTEX
  5
A7
330
A5
100
AcDbEntity
  8
Calque 1
 62
     1
420
 16711680
370
     9
100
AcDbVertex
100
AcDb2dVertex
 10
235.8168760000234
 20
-198.334049113892
 30
0.0
  0
VERTEX
  5
A8
330
A5
100
AcDbEntity
  8
Calque 1
 62
     1
420
 16711680
370
     9
100
AcDbVertex
100
AcDb2dVertex
 10
214.9913844332479
 20
-198.334049113892
 30
0.0
  0
VERTEX
  5
A9
330
A5
100
AcDbEntity
  8
Calque 1
 62
     1
420
 16711680
370
     9
100
AcDbVertex
100
AcDb2dVertex
 10
214.9913844332479
 20
-192.3570467237239
 30
0.0
  0
VERTEX
  5
AA
330
A5
100
AcDbEntity
  8
Calque 1
 62
     1
420
 16711680
370
     9
100
AcDbVertex
100
AcDb2dVertex
 10
226.0433323570075
 20
-176.3058150716792
 30
0.0
  0
VERTEX
  5
AB
330
A5
100
AcDbEntity
  8
Calque 1
 62
     1
420
 16711680
370
     9
100
AcDbVertex
100
AcDb2dVertex
 10
225.9679507806114
 20
-176.1928828215391
 30
0.0
  0
VERTEX
  5
AC
330
A5
100
AcDbEntity
  8
Calque 1
 62
     1
420
 16711680
370
     9
100
AcDbVertex
100
AcDb2dVertex
 10
215.3674516285045
 20
-176.1928828215391
 30
0.0
  0
VERTEX
  5
AD
330
A5
100
AcDbEntity
  8
Calque 1
 62
     1
420
 16711680
370
     9
100
AcDbVertex
100
AcDb2dVertex
 10
215.3674516285045
 20
-169.6520598673958
 30
0.0
  0
VERTEX
  5
AE
330
A5
100
AcDbEntity
  8
Calque 1
 62
     1
420
 16711680
370
     9
100
AcDbVertex
100
AcDb2dVertex
 10
235.4410890336772
 20
-169.6520598673958
 30
0.0
  0
VERTEX
  5
AF
330
A5
100
AcDbEntity
  8
Calque 1
 62
     1
420
 16711680
370
     9
100
AcDbVertex
100
AcDb2dVertex
 10
235.4410890336772
 20
-176.0048492239114
 30
0.0
  0
VERTEX
  5
B0
330
A5
100
AcDbEntity
  8
Calque 1
 62
     1
420
 16711680
370
     9
100
AcDbVertex
100
AcDb2dVertex
 10
224.3515904361741
 20
-191.6805741385177
 30
0.0
  0
VERTEX
  5
B1
330
A5
100
AcDbEntity
  8
Calque 1
 62
     1
420
 16711680
370
     9
100
AcDbVertex
100
AcDb2dVertex
 10
224.4266917836623
 20
-191.7932261597487
 30
0.0
  0
VERTEX
  5
B2
330
A5
100
AcDbEntity
  8
Calque 1
 62
     1
420
 16711680
370
     9
100
AcDbVertex
100
AcDb2dVertex
 10
235.8168760000234
 20
-191.7932261597487
 30
0.0
  0
SEQEND
  5
B3
330
A5
100
AcDbEntity
  8
Calque 1
 62
     1
420
 16711680
370
     9
  0
POLYLINE
  5
B4
330
1F
100
AcDbEntity
  8
Calque 1
 62
     1
420
 16711680
370
     9
100
AcDb2dPolyline
 66
     1
 10
0.0
 20
0.0
 30
0.0
  0
VERTEX
  5
B5
330
B4
100
AcDbEntity
  8
Calque 1
 62
     1
420
 16711680
370
     9
100
AcDbVertex
100
AcDb2dVertex
 10
41.91631152676783
 20
-12.67600200436503
 30
0.0
  0
VERTEX
  5
B6
330
B4
100
AcDbEntity
  8
Calque 1
 62
     1
420
 16711680
370
     9
100
AcDbVertex
100
AcDb2dVertex
 10
38.68349875663409
 20
-26.17816641852415
 30
0.0
  0
VERTEX
  5
B7
330
B4
100
AcDbEntity
  8
Calque 1
 62
     1
420
 16711680
370
     9
100
AcDbVertex
100
AcDb2dVertex
 10
39.75930963783424
 20
-29.75441272064926
 30
0.0
  0
VERTEX
  5
B8
330
B4
100
AcDbEntity
  8
Calque 1
 62
     1
420
 16711680
370
     9
100
AcDbVertex
100
AcDb2dVertex
 10
34.487565364305
 20
-29.75441272064926
 30
0.0
  0
VERTEX
  5
B9
330
B4
100
AcDbEntity
  8
Calque 1
 62
     1
420
 16711680
370
     9
100
AcDbVertex
100
AcDb2dVertex
 10
35.25976946743911
 20
-27.27011338924849
 30
0.0
  0
VERTEX
  5
BA
330
B4
100
AcDbEntity
  8
Calque 1
 62
     1
420
 16711680
370
     9
100
AcDbVertex
100
AcDb2dVertex
 10
38.79613053600277
 20
-12.50015836425858
 30
0.0
  0
VERTEX
  5
BB
330
B4
100
AcDbEntity
  8
Calque 1
 62
     1
420
 16711680
370
     9
100
AcDbVertex
100
AcDb2dVertex
 10
32.39570979012605
 20
-12.50015836425858
 30
0.0
  0
VERTEX
  5
BC
330
B4
100
AcDbEntity
  8
Calque 1
 62
     1
420
 16711680
370
     9
100
AcDbVertex
100
AcDb2dVertex
 10
21.76879029538709
 20
-41.18214761075508
 30
0.0
  0
VERTEX
  5
BD
330
B4
100
AcDbEntity
  8
Calque 1
 62
     1
420
 16711680
370
     9
100
AcDbVertex
100
AcDb2dVertex
 10
31.18245227058596
 20
-41.18214761075508
 30
0.0
  0
VERTEX
  5
BE
330
B4
100
AcDbEntity
  8
Calque 1
 62
     1
420
 16711680
370
     9
100
AcDbVertex
100
AcDb2dVertex
 10
32.98144182655195
 20
-35.91944870844538
 30
0.0
  0
VERTEX
  5
BF
330
B4
100
AcDbEntity
  8
Calque 1
 62
     1
420
 16711680
370
     9
100
AcDbVertex
100
AcDb2dVertex
 10
41.2654331755876
 20
-35.91944870844538
 30
0.0
  0
VERTEX
  5
C0
330
B4
100
AcDbEntity
  8
Calque 1
 62
     1
420
 16711680
370
     9
100
AcDbVertex
100
AcDb2dVertex
 10
43.06442273155327
 20
-41.18214761075508
 30
0.0
  0
VERTEX
  5
C1
330
B4
100
AcDbEntity
  8
Calque 1
 62
     1
420
 16711680
370
     9
100
AcDbVertex
100
AcDb2dVertex
 10
52.47808470675245
 20
-41.18214761075508
 30
0.0
  0
VERTEX
  5
C2
330
B4
100
AcDbEntity
  8
Calque 1
 62
     1
420
 16711680
370
     9
100
AcDbVertex
100
AcDb2dVertex
 10
41.91631152676783
 20
-12.67600200436503
 30
0.0
  0
SEQEND
  5
C3
330
B4
100
AcDbEntity
  8
Calque 1
 62
     1
420
 16711680
370
     9
  0
INSERT
  5
C5
330
1F
100
AcDbEntity
  8
Calque 1
100
AcDbBlockReference
  2
block 2
 10
0.0
 20
0.0
 30
0.0
  0
INSERT
  5
D9
330
1F
100
AcDbEntity
  8
Calque 1
100
AcDbBlockReference
  2
block 3
 10
0.0
 20
0.0
 30
0.0
  0
POLYLINE
  5
E4
330
1F
100
AcDbEntity
  8
Calque 1
 62
     1
420
 16711680
370
     9
100
AcDb2dPolyline
 66
     1
 10
0.0
 20
0.0
 30
0.0
  0
VERTEX
  5
E5
330
E4
100
AcDbEntity
  8
Calque 1
 62
     1
420
 16711680
370
     9
100
AcDbVertex
100
AcDb2dVertex
 10
148.2862786346536
 20
-57.57389862113807
 30
0.0
  0
VERTEX
  5
E6
330
E4
100
AcDbEntity
  8
Calque 1
 62
     1
420
 16711680
370
     9
100
AcDbVertex
100
AcDb2dVertex
 10
148.2862786346536
 20
-73.92609612095085
 30
0.0
  0
VERTEX
  5
E7
330
E4
100
AcDbEntity
  8
Calque 1
 62
     1
420
 16711680
370
     9
100
AcDbVertex
100
AcDb2dVertex
 10
148.2862786346536
 20
-80.09099199429271
 30
0.0
  0
VERTEX
  5
E8
330
E4
100
AcDbEntity
  8
Calque 1
 62
     1
420
 16711680
370
     9
100
AcDbVertex
100
AcDb2dVertex
 10
157.2814794766487
 20
-80.09099199429271
 30
0.0
  0
VERTEX
  5
E9
330
E4
100
AcDbEntity
  8
Calque 1
 62
     1
420
 16711680
370
     9
100
AcDbVertex
100
AcDb2dVertex
 10
157.2814794766487
 20
-51.40900274779621
 30
0.0
  0
VERTEX
  5
EA
330
E4
100
AcDbEntity
  8
Calque 1
 62
     1
420
 16711680
370
     9
100
AcDbVertex
100
AcDb2dVertex
 10
148.2862786346536
 20
-51.40900274779621
 30
0.0
  0
VERTEX
  5
EB
330
E4
100
AcDbEntity
  8
Calque 1
 62
     1
420
 16711680
370
     9
100
AcDbVertex
100
AcDb2dVertex
 10
148.2862786346536
 20
-57.57389862113807
 30
0.0
  0
SEQEND
  5
EC
330
E4
100
AcDbEntity
  8
Calque 1
 62
     1
420
 16711680
370
     9
  0
SPLINE
  5
ED
330
1F
100
AcDbEntity
  8
Calque 1
 62
     1
420
 16711680
370
     9
100
AcDbSpline
210
0.0
220
0.0
230
1.0
 70
    11
 71
     3
 72
    44
 73
    40
 74
     0
 42
0.0000000001
 43
0.0000000001
 12
1.0
 22
0.0
 32
0.0
 13
1.0
 23
0.0
 33
0.0
 40
0.0
 40
0.0
 40
0.0
 40
0.0
 40
1.0
 40
1.0
 40
1.0
 40
2.0
 40
2.0
 40
2.0
 40
3.0
 40
3.0
 40
3.0
 40
4.0
 40
4.0
 40
4.0
 40
5.0
 40
5.0
 40
5.0
 40
6.0
 40
6.0
 40
6.0
 40
7.0
 40
7.0
 40
7.0
 40
8.0
 40
8.0
 40
8.0
 40
9.0
 40
9.0
 40
9.0
 40
10.0
 40
10.0
 40
10.0
 40
11.0
 40
11.0
 40
11.0
 40
12.0
 40
12.0
 40
12.0
 40
13.0
 40
13.0
 40
13.0
 40
13.0
 10
192.9410179778916
 20
-52.26898389571821
 30
0.0
 10
192.9410179778916
 20
-52.26898389571821
 30
0.0
 10
192.9410179778916
 20
-70.77120266766121
 30
0.0
 10
192.9410179778916
 20
-70.77120266766121
 30
0.0
 10
192.9410179778916
 20
-70.77120266766121
 30
0.0
 10
192.819164799547
 20
-70.77120266766121
 30
0.0
 10
192.819164799547
 20
-70.77120266766121
 30
0.0
 10
192.6928464131254
 20
-71.84059121124871
 30
0.0
 10
192.4306916967453
 20
-72.6322203635566
 30
0.0
 10
192.0258461643229
 20
-73.13202613623753
 30
0.0
 10
191.4373787418089
 20
-73.85922015388907
 30
0.0
 10
190.3300071384187
 20
-74.22211659044343
 30
0.0
 10
188.7051414198622
 20
-74.22211659044343
 30
0.0
 10
187.6681164279502
 20
-74.22211659044343
 30
0.0
 10
186.5613715204313
 20
-74.08480442526084
 30
0.0
 10
185.3844366754016
 20
-73.80863883589856
 30
0.0
 10
184.2075018303725
 20
-73.53317381880723
 30
0.0
 10
183.1422755242824
 20
-73.16957680998193
 30
0.0
 10
182.189854474904
 20
-72.71854838169266
 30
0.0
 10
182.189854474904
 20
-72.71854838169266
 30
0.0
 10
182.189854474904
 20
-80.12401763312432
 30
0.0
 10
182.189854474904
 20
-80.12401763312432
 30
0.0
 10
182.8900304363562
 20
-80.44992385375224
 30
0.0
 10
184.0669652813853
 20
-80.7318341357395
 30
0.0
 10
185.7208156839593
 20
-80.96974847908642
 30
0.0
 10
187.3738827166926
 20
-81.20766282243366
 30
0.0
 10
188.942972502763
 20
-81.3269002230158
 30
0.0
 10
190.4285550640744
 20
-81.3269002230158
 30
0.0
 10
194.4354917868665
 20
-81.3269002230158
 30
0.0
 10
197.3778288994386
 20
-80.39359784313643
 30
0.0
 10
199.2555664017913
 20
-78.52629251110515
 30
0.0
 10
201.1326772082726
 20
-76.65968775134579
 30
0.0
 10
202.0719376443683
 20
-73.74642801820319
 30
0.0
 10
202.0719376443683
 20
-69.7863731972241
 30
0.0
 10
202.0719376443683
 20
-69.7863731972241
 30
0.0
 10
202.0719376443683
 20
-52.26898389571821
 30
0.0
 10
202.0719376443683
 20
-52.26898389571821
 30
0.0
 10
202.0719376443683
 20
-52.26898389571821
 30
0.0
 10
192.9410179778916
 20
-52.26898389571821
 30
0.0
 10
192.9410179778916
 20
-52.26898389571821
 30
0.0
  0
INSERT
  5
EF
330
1F
100
AcDbEntity
  8
Calque 1
100
AcDbBlockReference
  2
block 4
 10
0.0
 20
0.0
 30
0.0
  0
INSERT
  5
F5
330
1F
100
AcDbEntity
  8
Calque 1
100
AcDbBlockReference
  2
block 5
 10
0.0
 20
0.0
 30
0.0
  0
INSERT
  5
101
330
1F
100
AcDbEntity
  8
Calque 1
100
AcDbBlockReference
  2
block 6
 10
0.0
 20
0.0
 30
0.0
  0
INSERT
  5
107
330
1F
100
AcDbEntity
  8
Calque 1
100
AcDbBlockReference
  2
block 7
 10
0.0
 20
0.0
 30
0.0
  0
SPLINE
  5
112
330
1F
100
AcDbEntity
  8
Calque 1
 62
     1
420
 16711680
370
     9
100
AcDbSpline
210
0.0
220
0.0
230
1.0
 70
    11
 71
     3
 72
    29
 73
    25
 74
     0
 42
0.0000000001
 43
0.0000000001
 12
1.0
 22
0.0
 32
0.0
 13
1.0
 23
0.0
 33
0.0
 40
0.0
 40
0.0
 40
0.0
 40
0.0
 40
1.0
 40
1.0
 40
1.0
 40
2.0
 40
2.0
 40
2.0
 40
3.0
 40
3.0
 40
3.0
 40
4.0
 40
4.0
 40
4.0
 40
5.0
 40
5.0
 40
5.0
 40
6.0
 40
6.0
 40
6.0
 40
7.0
 40
7.0
 40
7.0
 40
8.0
 40
8.0
 40
8.0
 40
8.0
 10
237.3604103667545
 20
-144.075694950231
 30
0.0
 10
237.3604103667545
 20
-144.075694950231
 30
0.0
 10
237.3603864542177
 20
-144.075694950231
 30
0.0
 10
237.3603864542177
 20
-144.075694950231
 30
0.0
 10
230.757128466259
 20
-144.0756949501771
 30
0.0
 10
225.4041302115405
 20
-138.7226966951885
 30
0.0
 10
225.4041302118197
 20
-132.1194387072298
 30
0.0
 10
225.4041302118197
 20
-132.1194387072298
 30
0.0
 10
225.4041302161293
 20
-30.28125623290158
 30
0.0
 10
225.4041302161293
 20
-30.28125623290158
 30
0.0
 10
225.4041302164091
 20
-23.67799824778879
 30
0.0
 10
230.7571284690054
 20
-18.32499999541868
 30
0.0
 10
237.3603864541189
 20
-18.32499999541868
 30
0.0
 10
237.3603864541189
 20
-18.32499999541868
 30
0.0
 10
237.360410366655
 20
-18.32499999541868
 30
0.0
 10
237.360410366655
 20
-18.32499999541868
 30
0.0
 10
243.9636683518461
 20
-18.32499999541868
 30
0.0
 10
249.3166666044744
 20
-23.67799824791007
 30
0.0
 10
249.3166666046439
 20
-30.28125623310083
 30
0.0
 10
249.3166666046439
 20
-30.28125623310083
 30
0.0
 10
249.3166666072588
 20
-132.1194387095175
 30
0.0
 10
249.3166666072588
 20
-132.1194387095175
 30
0.0
 10
249.3166666074282
 20
-138.7226966963211
 30
0.0
 10
243.9636683535587
 20
-144.0756949502849
 30
0.0
 10
237.3604103667545
 20
-144.075694950231
 30
0.0
  0
SPLINE
  5
113
330
1F
100
AcDbEntity
  8
Calque 1
 62
     1
420
 16711680
370
     9
100
AcDbSpline
210
0.0
220
0.0
230
1.0
 70
    11
 71
     3
 72
    29
 73
    25
 74
     0
 42
0.0000000001
 43
0.0000000001
 12
1.0
 22
0.0
 32
0.0
 13
1.0
 23
0.0
 33
0.0
 40
0.0
 40
0.0
 40
0.0
 40
0.0
 40
1.0
 40
1.0
 40
1.0
 40
2.0
 40
2.0
 40
2.0
 40
3.0
 40
3.0
 40
3.0
 40
4.0
 40
4.0
 40
4.0
 40
5.0
 40
5.0
 40
5.0
 40
6.0
 40
6.0
 40
6.0
 40
7.0
 40
7.0
 40
7.0
 40
8.0
 40
8.0
 40
8.0
 40
8.0
 10
268.7791665994621
 20
-209.9999999475068
 30
0.0
 10
268.7791665994621
 20
-209.9999999475068
 30
0.0
 10
28.22083332627817
 20
-209.9999999475068
 30
0.0
 10
28.22083332627817
 20
-209.9999999475068
 30
0.0
 10
12.63489745265798
 20
-209.9999999475068
 30
0.0
 10
0.0
 20
-197.3651024948488
 30
0.0
 10
0.0
 20
-181.7791666212286
 30
0.0
 10
0.0
 20
-181.7791666212286
 30
0.0
 10
0.0
 20
-28.22083332627817
 30
0.0
 10
0.0
 20
-28.22083332627817
 30
0.0
 10
0.0
 20
-12.63489745265798
 30
0.0
 10
12.63489745265798
 20
0.0
 30
0.0
 10
28.22083332627817
 20
0.0
 30
0.0
 10
28.22083332627817
 20
0.0
 30
0.0
 10
268.7791665994621
 20
0.0
 30
0.0
 10
268.7791665994621
 20
0.0
 30
0.0
 10
284.3651024730822
 20
0.0
 30
0.0
 10
296.9999999257402
 20
-12.63489745265798
 30
0.0
 10
296.9999999257402
 20
-28.22083332627817
 30
0.0
 10
296.9999999257402
 20
-28.22083332627817
 30
0.0
 10
296.9999999257402
 20
-181.7791666212286
 30
0.0
 10
296.9999999257402
 20
-181.7791666212286
 30
0.0
 10
296.9999999257402
 20
-197.3651024948488
 30
0.0
 10
284.3651024730822
 20
-209.9999999475068
 30
0.0
 10
268.7791665994621
 20
-209.9999999475068
 30
0.0
  0
ENDSEC
  0
SECTION
  2
OBJECTS
  0
DICTIONARY
  5
C
330
0
100
AcDbDictionary
281
     1
  3
ACAD_GROUP
350
D
  3
ACAD_LAYOUT
350
1A
  3
ACAD_MATERIAL
350
3B
  3
ACAD_MLEADERSTYLE
350
115
  3
ACAD_MLINESTYLE
350
17
  3
ACAD_PLOTSETTINGS
350
19
  3
ACAD_PLOTSTYLENAME
350
E
  3
ACAD_TABLESTYLE
350
114
  3
ACAD_VISUALSTYLE
350
2A
  0
SUN
  5
3F
330
29
100
AcDbSun
 90
        1
290
     0
 63
     7
421
 16777215
 40
1.0
291
     1
 91
  2455826
 92
 54000000
292
     0
 70
     2
 71
   256
280
     1
  0
DICTIONARY
  5
D
102
{ACAD_REACTORS
330
C
102
}
330
C
100
AcDbDictionary
281
     1
  0
DICTIONARY
  5
1A
102
{ACAD_REACTORS
330
C
102
}
330
C
100
AcDbDictionary
281
     1
  3
Layout1
350
1E
  3
Layout2
350
26
  3
Model
350
22
  0
DICTIONARY
  5
3B
102
{ACAD_REACTORS
330
C
102
}
330
C
100
AcDbDictionary
281
     1
  3
ByBlock
350
3D
  3
ByLayer
350
3C
  3
Global
350
3E
  0
DICTIONARY
  5
115
102
{ACAD_REACTORS
330
C
102
}
330
C
100
AcDbDictionary
281
     1
  0
DICTIONARY
  5
17
102
{ACAD_REACTORS
330
C
102
}
330
C
100
AcDbDictionary
281
     1
  3
Standard
350
18
  0
DICTIONARY
  5
19
102
{ACAD_REACTORS
330
C
102
}
330
C
100
AcDbDictionary
281
     1
  0
ACDBDICTIONARYWDFLT
  5
E
102
{ACAD_REACTORS
330
C
102
}
330
C
100
AcDbDictionary
281
     1
  3
Normal
350
F
100
AcDbDictionaryWithDefault
340
F
  0
DICTIONARY
  5
114
102
{ACAD_REACTORS
330
C
102
}
330
C
100
AcDbDictionary
281
     1
  0
DICTIONARY
  5
2A
102
{ACAD_REACTORS
330
C
102
}
330
C
100
AcDbDictionary
281
     1
  3
2dWireframe
350
2F
  3
3D Hidden
350
31
  3
3dWireframe
350
30
  3
Basic
350
32
  3
Brighten
350
36
  3
ColorChange
350
3A
  3
Conceptual
350
34
  3
Dim
350
35
  3
Facepattern
350
39
  3
Flat
350
2B
  3
FlatWithEdges
350
2C
  3
Gouraud
350
2D
  3
GouraudWithEdges
350
2E
  3
Linepattern
350
38
  3
Realistic
350
33
  3
Thicken
350
37
  0
LAYOUT
  5
1E
102
{ACAD_REACTORS
330
1A
102
}
330
1A
100
AcDbPlotSettings
  1

  2
none_device
  4

  6

 40
0.0
 41
0.0
 42
0.0
 43
0.0
 44
0.0
 45
0.0
 46
0.0
 47
0.0
 48
0.0
 49
0.0
140
0.0
141
0.0
142
1.0
143
1.0
 70
   688
 72
     0
 73
     0
 74
     5
  7

 75
    16
 76
     0
 77
     2
 78
   300
147
1.0
148
0.0
149
0.0
100
AcDbLayout
  1
Layout1
 70
     1
 71
     1
 10
0.0
 20
0.0
 11
12.0
 21
9.0
 12
0.0
 22
0.0
 32
0.0
 14
1.000000000000000E+20
 24
1.000000000000000E+20
 34
1.000000000000000E+20
 15
-1.000000000000000E+20
 25
-1.000000000000000E+20
 35
-1.000000000000000E+20
146
0.0
 13
0.0
 23
0.0
 33
0.0
 16
1.0
 26
0.0
 36
0.0
 17
0.0
 27
1.0
 37
0.0
 76
     0
330
1B
  0
LAYOUT
  5
26
102
{ACAD_REACTORS
330
1A
102
}
330
1A
100
AcDbPlotSettings
  1

  2
none_device
  4

  6

 40
0.0
 41
0.0
 42
0.0
 43
0.0
 44
0.0
 45
0.0
 46
0.0
 47
0.0
 48
0.0
 49
0.0
140
0.0
141
0.0
142
1.0
143
1.0
 70
   688
 72
     0
 73
     0
 74
     5
  7

 75
    16
 76
     0
 77
     2
 78
   300
147
1.0
148
0.0
149
0.0
100
AcDbLayout
  1
Layout2
 70
     1
 71
     2
 10
0.0
 20
0.0
 11
0.0
 21
0.0
 12
0.0
 22
0.0
 32
0.0
 14
0.0
 24
0.0
 34
0.0
 15
0.0
 25
0.0
 35
0.0
146
0.0
 13
0.0
 23
0.0
 33
0.0
 16
1.0
 26
0.0
 36
0.0
 17
0.0
 27
1.0
 37
0.0
 76
     0
330
23
  0
LAYOUT
  5
22
102
{ACAD_REACTORS
330
1A
102
}
330
1A
100
AcDbPlotSettings
  1

  2
none_device
  4

  6

 40
0.0
 41
0.0
 42
0.0
 43
0.0
 44
0.0
 45
0.0
 46
0.0
 47
0.0
 48
0.0
 49
0.0
140
0.0
141
0.0
142
1.0
143
1.0
 70
  1712
 72
     0
 73
     0
 74
     0
  7

 75
     0
 76
     0
 77
     2
 78
   300
147
1.0
148
0.0
149
0.0
100
AcDbLayout
  1
Model
 70
     1
 71
     0
 10
0.0
 20
0.0
 11
12.0
 21
9.0
 12
0.0
 22
0.0
 32
0.0
 14
1.000000000000000E+20
 24
1.000000000000000E+20
 34
1.000000000000000E+20
 15
-1.000000000000000E+20
 25
-1.000000000000000E+20
 35
-1.000000000000000E+20
146
0.0
 13
0.0
 23
0.0
 33
0.0
 16
1.0
 26
0.0
 36
0.0
 17
0.0
 27
1.0
 37
0.0
 76
     0
330
1F
331
29
  0
MATERIAL
  5
3D
102
{ACAD_REACTORS
330
3B
102
}
330
3B
100
AcDbMaterial
  1
ByBlock
 72
     1
 94
      127
  0
MATERIAL
  5
3C
102
{ACAD_REACTORS
330
3B
102
}
330
3B
100
AcDbMaterial
  1
ByLayer
 72
     1
 94
      127
  0
MATERIAL
  5
3E
102
{ACAD_REACTORS
330
3B
102
}
330
3B
100
AcDbMaterial
  1
Global
 72
     1
 94
      127
  0
MLINESTYLE
  5
18
102
{ACAD_REACTORS
330
17
102
}
330
17
100
AcDbMlineStyle
  2
Standard
 70
     0
  3

 62
   256
 51
90.0
 52
90.0
 71
     2
 49
0.5
 62
   256
  6
BYLAYER
 49
-0.5
 62
   256
  6
BYLAYER
  0
ACDBPLACEHOLDER
  5
F
102
{ACAD_REACTORS
330
E
102
}
330
E
  0
VISUALSTYLE
  5
2F
102
{ACAD_REACTORS
330
2A
102
}
330
2A
100
AcDbVisualStyle
  2
2dWireframe
 70
     4
177
     2
291
     0
 71
     0
176
     1
 72
     2
176
     1
 73
     0
176
     1
 90
        0
176
     1
 40
-0.6
176
     1
 41
-30.0
176
     1
 62
     5
 63
     7
421
 16777215
176
     1
 74
     1
176
     1
 91
        4
176
     1
 64
     7
176
     1
 65
   257
176
     1
 75
     1
176
     1
175
     1
176
     1
 42
1.0
176
     1
 92
        0
176
     1
 66
   257
176
     1
 43
1.0
176
     1
 76
     1
176
     1
 77
     6
176
     1
 78
     2
176
     1
 67
     7
176
     1
 79
     5
176
     1
170
     0
176
     1
171
     0
176
     1
290
     0
176
     1
 93
        1
176
     1
 44
0.0
176
     1
173
     0
176
     1
  0
VISUALSTYLE
  5
31
102
{ACAD_REACTORS
330
2A
102
}
330
2A
100
AcDbVisualStyle
  2
3D Hidden
 70
     6
177
     2
291
     0
 71
     1
176
     1
 72
     2
176
     1
 73
     2
176
     1
 90
        0
176
     1
 40
-0.6
176
     1
 41
-30.0
176
     1
 62
     5
 63
     7
421
 16777215
176
     1
 74
     2
176
     1
 91
        2
176
     1
 64
     7
176
     1
 65
   257
176
     1
 75
     2
176
     1
175
     1
176
     1
 42
40.0
176
     1
 92
        0
176
     1
 66
   257
176
     1
 43
1.0
176
     1
 76
     1
176
     1
 77
     6
176
     1
 78
     2
176
     1
 67
     7
176
     1
 79
     3
176
     1
170
     0
176
     1
171
     0
176
     1
290
     0
176
     1
 93
        1
176
     1
 44
0.0
176
     1
173
     0
176
     1
  0
VISUALSTYLE
  5
30
102
{ACAD_REACTORS
330
2A
102
}
330
2A
100
AcDbVisualStyle
  2
3dWireframe
 70
     5
177
     2
291
     0
 71
     0
176
     1
 72
     2
176
     1
 73
     0
176
     1
 90
        0
176
     1
 40
-0.6
176
     1
 41
-30.0
176
     1
 62
     5
 63
     7
421
 16777215
176
     1
 74
     1
176
     1
 91
        4
176
     1
 64
     7
176
     1
 65
   257
176
     1
 75
     1
176
     1
175
     1
176
     1
 42
1.0
176
     1
 92
        0
176
     1
 66
   257
176
     1
 43
1.0
176
     1
 76
     1
176
     1
 77
     6
176
     1
 78
     2
176
     1
 67
     7
176
     1
 79
     5
176
     1
170
     0
176
     1
171
     0
176
     1
290
     0
176
     1
 93
        1
176
     1
 44
0.0
176
     1
173
     0
176
     1
  0
VISUALSTYLE
  5
32
102
{ACAD_REACTORS
330
2A
102
}
330
2A
100
AcDbVisualStyle
  2
Basic
 70
     7
177
     2
291
     1
 71
     1
176
     1
 72
     0
176
     1
 73
     1
176
     1
 90
        0
176
     1
 40
-0.6
176
     1
 41
-30.0
176
     1
 62
     5
 63
     7
421
 16777215
176
     1
 74
     0
176
     1
 91
        4
176
     1
 64
     7
176
     1
 65
   257
176
     1
 75
     1
176
     1
175
     1
176
     1
 42
1.0
176
     1
 92
        8
176
     1
 66
     7
176
     1
 43
1.0
176
     1
 76
     1
176
     1
 77
     6
176
     1
 78
     2
176
     1
 67
     7
176
     1
 79
     5
176
     1
170
     0
176
     1
171
     0
176
     1
290
     0
176
     1
 93
        1
176
     1
 44
0.0
176
     1
173
     0
176
     1
  0
VISUALSTYLE
  5
36
102
{ACAD_REACTORS
330
2A
102
}
330
2A
100
AcDbVisualStyle
  2
Brighten
 70
    12
177
     2
291
     1
 71
     2
176
     1
 72
     2
176
     1
 73
     0
176
     1
 90
        0
176
     1
 40
-0.6
176
     1
 41
-30.0
176
     1
 62
     5
 63
     7
421
 16777215
176
     1
 74
     1
176
     1
 91
        4
176
     1
 64
     7
176
     1
 65
   257
176
     1
 75
     1
176
     1
175
     1
176
     1
 42
1.0
176
     1
 92
        8
176
     1
 66
     7
176
     1
 43
1.0
176
     1
 76
     1
176
     1
 77
     6
176
     1
 78
     2
176
     1
 67
     7
176
     1
 79
     5
176
     1
170
     0
176
     1
171
     0
176
     1
290
     0
176
     1
 93
        1
176
     1
 44
50.0
176
     1
173
     0
176
     1
  0
VISUALSTYLE
  5
3A
102
{ACAD_REACTORS
330
2A
102
}
330
2A
100
AcDbVisualStyle
  2
ColorChange
 70
    16
177
     2
291
     1
 71
     2
176
     1
 72
     2
176
     1
 73
     3
176
     1
 90
        0
176
     1
 40
-0.6
176
     1
 41
-30.0
176
     1
 62
     5
 63
     8
421
  8421504
176
     1
 74
     1
176
     1
 91
        4
176
     1
 64
     7
176
     1
 65
   257
176
     1
 75
     1
176
     1
175
     1
176
     1
 42
1.0
176
     1
 92
        8
176
     1
 66
     8
424
  8421504
176
     1
 43
1.0
176
     1
 76
     1
176
     1
 77
     6
176
     1
 78
     2
176
     1
 67
     7
176
     1
 79
     5
176
     1
170
     0
176
     1
171
     0
176
     1
290
     0
176
     1
 93
        1
176
     1
 44
0.0
176
     1
173
     0
176
     1
  0
VISUALSTYLE
  5
34
102
{ACAD_REACTORS
330
2A
102
}
330
2A
100
AcDbVisualStyle
  2
Conceptual
 70
     9
177
     2
291
     0
 71
     3
176
     1
 72
     2
176
     1
 73
     0
176
     1
 90
        0
176
     1
 40
-0.6
176
     1
 41
-30.0
176
     1
 62
     5
 63
     7
421
 16777215
176
     1
 74
     2
176
     1
 91
        2
176
     1
 64
     7
176
     1
 65
   257
176
     1
 75
     1
176
     1
175
     1
176
     1
 42
40.0
176
     1
 92
        8
176
     1
 66
     7
176
     1
 43
1.0
176
     1
 76
     1
176
     1
 77
     6
176
     1
 78
     2
176
     1
 67
     7
176
     1
 79
     3
176
     1
170
     0
176
     1
171
     0
176
     1
290
     0
176
     1
 93
        1
176
     1
 44
0.0
176
     1
173
     0
176
     1
  0
VISUALSTYLE
  5
35
102
{ACAD_REACTORS
330
2A
102
}
330
2A
100
AcDbVisualStyle
  2
Dim
 70
    11
177
     2
291
     1
 71
     2
176
     1
 72
     2
176
     1
 73
     0
176
     1
 90
        0
176
     1
 40
-0.6
176
     1
 41
-30.0
176
     1
 62
     5
 63
     7
421
 16777215
176
     1
 74
     1
176
     1
 91
        4
176
     1
 64
     7
176
     1
 65
   257
176
     1
 75
     1
176
     1
175
     1
176
     1
 42
1.0
176
     1
 92
        8
176
     1
 66
     7
176
     1
 43
1.0
176
     1
 76
     1
176
     1
 77
     6
176
     1
 78
     2
176
     1
 67
     7
176
     1
 79
     5
176
     1
170
     0
176
     1
171
     0
176
     1
290
     0
176
     1
 93
        1
176
     1
 44
-50.0
176
     1
173
     0
176
     1
  0
VISUALSTYLE
  5
39
102
{ACAD_REACTORS
330
2A
102
}
330
2A
100
AcDbVisualStyle
  2
Facepattern
 70
    15
177
     2
291
     1
 71
     2
176
     1
 72
     2
176
     1
 73
     0
176
     1
 90
        0
176
     1
 40
-0.6
176
     1
 41
-30.0
176
     1
 62
     5
 63
     7
421
 16777215
176
     1
 74
     1
176
     1
 91
        4
176
     1
 64
     7
176
     1
 65
   257
176
     1
 75
     1
176
     1
175
     1
176
     1
 42
1.0
176
     1
 92
        8
176
     1
 66
     7
176
     1
 43
1.0
176
     1
 76
     1
176
     1
 77
     6
176
     1
 78
     2
176
     1
 67
     7
176
     1
 79
     5
176
     1
170
     0
176
     1
171
     0
176
     1
290
     0
176
     1
 93
        1
176
     1
 44
0.0
176
     1
173
     0
176
     1
  0
VISUALSTYLE
  5
2B
102
{ACAD_REACTORS
330
2A
102
}
330
2A
100
AcDbVisualStyle
  2
Flat
 70
     0
177
     2
291
     1
 71
     2
176
     1
 72
     1
176
     1
 73
     1
176
     1
 90
        2
176
     1
 40
-0.6
176
     1
 41
30.0
176
     1
 62
     5
 63
     7
421
 16777215
176
     1
 74
     0
176
     1
 91
        4
176
     1
 64
     7
176
     1
 65
   257
176
     1
 75
     1
176
     1
175
     1
176
     1
 42
1.0
176
     1
 92
        8
176
     1
 66
     7
176
     1
 43
1.0
176
     1
 76
     1
176
     1
 77
     6
176
     1
 78
     2
176
     1
 67
     7
176
     1
 79
     5
176
     1
170
     0
176
     1
171
     0
176
     1
290
     0
176
     1
 93
       13
176
     1
 44
0.0
176
     1
173
     0
176
     1
  0
VISUALSTYLE
  5
2C
102
{ACAD_REACTORS
330
2A
102
}
330
2A
100
AcDbVisualStyle
  2
FlatWithEdges
 70
     1
177
     2
291
     1
 71
     2
176
     1
 72
     1
176
     1
 73
     1
176
     1
 90
        2
176
     1
 40
-0.6
176
     1
 41
30.0
176
     1
 62
     5
 63
     7
421
 16777215
176
     1
 74
     1
176
     1
 91
        4
176
     1
 64
     7
176
     1
 65
   257
176
     1
 75
     1
176
     1
175
     1
176
     1
 42
1.0
176
     1
 92
        0
176
     1
 66
   257
176
     1
 43
1.0
176
     1
 76
     1
176
     1
 77
     6
176
     1
 78
     2
176
     1
 67
     7
176
     1
 79
     5
176
     1
170
     0
176
     1
171
     0
176
     1
290
     0
176
     1
 93
       13
176
     1
 44
0.0
176
     1
173
     0
176
     1
  0
VISUALSTYLE
  5
2D
102
{ACAD_REACTORS
330
2A
102
}
330
2A
100
AcDbVisualStyle
  2
Gouraud
 70
     2
177
     2
291
     1
 71
     2
176
     1
 72
     2
176
     1
 73
     1
176
     1
 90
        2
176
     1
 40
-0.6
176
     1
 41
30.0
176
     1
 62
     5
 63
     7
421
 16777215
176
     1
 74
     0
176
     1
 91
        4
176
     1
 64
     7
176
     1
 65
   257
176
     1
 75
     1
176
     1
175
     1
176
     1
 42
1.0
176
     1
 92
        0
176
     1
 66
     7
176
     1
 43
1.0
176
     1
 76
     1
176
     1
 77
     6
176
     1
 78
     2
176
     1
 67
     7
176
     1
 79
     5
176
     1
170
     0
176
     1
171
     0
176
     1
290
     0
176
     1
 93
       13
176
     1
 44
0.0
176
     1
173
     0
176
     1
  0
VISUALSTYLE
  5
2E
102
{ACAD_REACTORS
330
2A
102
}
330
2A
100
AcDbVisualStyle
  2
GouraudWithEdges
 70
     3
177
     2
291
     1
 71
     2
176
     1
 72
     2
176
     1
 73
     1
176
     1
 90
        2
176
     1
 40
-0.6
176
     1
 41
30.0
176
     1
 62
     5
 63
     7
421
 16777215
176
     1
 74
     1
176
     1
 91
        4
176
     1
 64
     7
176
     1
 65
   257
176
     1
 75
     1
176
     1
175
     1
176
     1
 42
1.0
176
     1
 92
        0
176
     1
 66
   257
176
     1
 43
1.0
176
     1
 76
     1
176
     1
 77
     6
176
     1
 78
     2
176
     1
 67
     7
176
     1
 79
     5
176
     1
170
     0
176
     1
171
     0
176
     1
290
     0
176
     1
 93
       13
176
     1
 44
0.0
176
     1
173
     0
176
     1
  0
VISUALSTYLE
  5
38
102
{ACAD_REACTORS
330
2A
102
}
330
2A
100
AcDbVisualStyle
  2
Linepattern
 70
    14
177
     2
291
     1
 71
     2
176
     1
 72
     2
176
     1
 73
     0
176
     1
 90
        0
176
     1
 40
-0.6
176
     1
 41
-30.0
176
     1
 62
     5
 63
     7
421
 16777215
176
     1
 74
     1
176
     1
 91
        4
176
     1
 64
     7
176
     1
 65
   257
176
     1
 75
     7
176
     1
175
     7
176
     1
 42
1.0
176
     1
 92
        8
176
     1
 66
     7
176
     1
 43
1.0
176
     1
 76
     1
176
     1
 77
     6
176
     1
 78
     2
176
     1
 67
     7
176
     1
 79
     5
176
     1
170
     0
176
     1
171
     0
176
     1
290
     0
176
     1
 93
        1
176
     1
 44
0.0
176
     1
173
     0
176
     1
  0
VISUALSTYLE
  5
33
102
{ACAD_REACTORS
330
2A
102
}
330
2A
100
AcDbVisualStyle
  2
Realistic
 70
     8
177
     2
291
     0
 71
     2
176
     1
 72
     2
176
     1
 73
     0
176
     1
 90
        0
176
     1
 40
-0.6
176
     1
 41
-30.0
176
     1
 62
     5
 63
     7
421
 16777215
176
     1
 74
     1
176
     1
 91
        0
176
     1
 64
     7
176
     1
 65
   257
176
     1
 75
     1
176
     1
175
     1
176
     1
 42
1.0
176
     1
 92
        8
176
     1
 66
     8
424
  7895160
176
     1
 43
1.0
176
     1
 76
     1
176
     1
 77
     6
176
     1
 78
     2
176
     1
 67
     7
176
     1
 79
     5
176
     1
170
     0
176
     1
171
     0
176
     1
290
     0
176
     1
 93
       13
176
     1
 44
0.0
176
     1
173
     0
176
     1
  0
VISUALSTYLE
  5
37
102
{ACAD_REACTORS
330
2A
102
}
330
2A
100
AcDbVisualStyle
  2
Thicken
 70
    13
177
     2
291
     1
 71
     2
176
     1
 72
     2
176
     1
 73
     0
176
     1
 90
        0
176
     1
 40
-0.6
176
     1
 41
-30.0
176
     1
 62
     5
 63
     7
421
 16777215
176
     1
 74
     1
176
     1
 91
        4
176
     1
 64
     7
176
     1
 65
   257
176
     1
 75
     1
176
     1
175
     1
176
     1
 42
1.0
176
     1
 92
       12
176
     1
 66
     7
176
     1
 43
1.0
176
     1
 76
     1
176
     1
 77
     6
176
     1
 78
     2
176
     1
 67
     7
176
     1
 79
     5
176
     1
170
     0
176
     1
171
     0
176
     1
290
     0
176
     1
 93
        1
176
     1
 44
0.0
176
     1
173
     0
176
     1
  0
ENDSEC
  0
EOF
